Muse - Sunburn Chords & Tabs

 

Sunburn Chords & Tabs

Muse Chords & Tabs

Version: 1 Type: Tab 1 rating
1 star 2 stars 3 stars 4 stars 5 stars
comments

Sunburn Tab

   
e-7-7-8--- For the 1st part of the ---7----7-------
B-8-5-8--- song pick these chords  ----8-----8---8-
G-9-5-9--- the patterns easy       -----9------9---
D-9-7-10--                         -9--------------
A---------                         ----------------
E---------                         ----------------

e-12-12-15- I think he
B-12-13-17- plays e-17
G-12-14-17- and B-19 here 
D-12-12-15- too, ie
A-14-12-15-
E----------

e---15------------17-15
B------17---19--17-----
G--------17------------
D----------------------
A-15-------------------
E----------------------

Chorus goes between Am Em and something i havent figured out yet..give me a day or 2
[ Tab from: http://www.guitartabs.cc/tabs/m/muse/sunburn_tab.html ]
e------ Try strumming this dunno if its right at all tho :(
B-5--5- i know the chords on piano and transcribed 'em from that
G-5--4-
D-4--5-
A------
E------

Riff
e---------------------10-11-12-11-10-----------------
B-11-h-12-11-10-11-12-----------------12-11-10-11-h-12 etc
G----------------------------------------------------

solo

e-12--15--14--12--11--9--7
B-x---x---x---x---x---x--x
G-9---12--11--9---8---6--4

Then it switches octaves( i think...i hope ;) )
To play this i think you  just use power chords based on the lower note of the above bit, ie

e----------------------
B----------------------
G-9--12--11--10--8--6-  
D-x--x---x---x---x--x-
A-7--10--9---8---6--4-
E---------------------

for the end just kinda play around with the first 2 chords; it shoud sound ok

hmm 1st tab over with then...enjoy
Comments