Muse - Stockholm Syndrome Chords & Tabs

 

Stockholm Syndrome Chords & Tabs

Muse Chords & Tabs

Version: 1 Type: Bass Tab 1 rating
1 star 2 stars 3 stars 4 stars 5 stars
comments

Stockholm Syndrome Bass Tab

#----------------------------------PLEASE NOTE--------------------------------#
#This file is the author's own work and represents their interpretation of the#
#song. You may only use this file for private study, scholarship, or research.#
#-----------------------------------------------------------------------------#

Author/Artist: Muse
Title: Stockholm Syndrome
Album: Absolution
Transcribed by: il buon Teo
Email: deadstar@PunkAss.com


===== TABLATURE EXPLANATION ======
==================================
=                                =
=   ----------                   =
=   ----5/8--- Slide Up          =
=                                =
=   ----------                   =
=   ----85--- Slide Down        =
=          			 =
=   ----------			 =
=   ----0~---- Let Ring		 =
=   ----------			 =
=		                 =
=   ----------                   =
=   ----5*---- 16x               =
=                		 =
=   ----------                   =
=   ---12**--- 32x               =
=                                =
=   ----------                   =
=   -----x---- Dead Note         =
=                                =
==================================

For the exact time listen the song!!

Intro:
G|--------------------------------|
D|--------------------------------|
A|------------------5**------73--|
D|--123-0--123-0------0**-------|
  
                                   
Verse:                             
G|------------------------------------------| 
D|------------------------------------------|
A|--5**--7*--8*--9*--10*--8*--7*--6*--12**--|        
D|------------------------------------------|   x 2


Pre Chorus:
G|-----------|
D|-----------|
A|-----------|
D|--5-4-3**--|


Chorus:
G|---------------------------------|
D|---------------------------------|
A|---------------------------/13*--|
D|--3*-2*-0**-/12---3*-2*-0*-------|

[ Tab from: http://www.guitartabs.cc/tabs/m/muse/stockholm_syndrome_btab.html ]
Breakdown:
G|----------------------------------------------------------------------------|
D|----------------------------------------------------------------------------|
A|----------------------------------------------------------------------------|
D|--3-3-3-3-3-3---6-6-6-6-6-6---7-7-7-7-7---10-10-10-10---11-11-11-11---12/3--|


Verse:                             
G|------------------------------------------| 
D|------------------------------------------|
A|--5**--7*--8*--9*--10*--8*--7*--6*--12**--|        
D|------------------------------------------|   x 2

then:
G|--------|
D|--------|
A|--------|
D|--159--|


Pre Chorus:
G|-----------|
D|-----------|
A|-----------|
D|--5-4-3**--|


Chorus:
G|---------------------------------|
D|---------------------------------|
A|---------------------------/13*--|
D|--3*-2*-0**-/12---3*-2*-0*-------|


Breakdown:
G|----------------------------------------------------------------------------|
D|----------------------------------------------------------------------------|
A|----------------------------------------------------------------------------|
D|--3-3-3-3-3-3---6-6-6-6-6-6---7-7-7-7-7---10-10-10-10---11-11-11-11---12/3--|


Solo:
G|------------------------------------------|
D|------------------------------------------|
A|--5*-3*-5*-8*-10*-8*-7*-6*-12**-----------|
D|-------------------------------x-x-5-4-3--|


Chorus:
G|-----------------------------|
D|-----------------------------|
A|-----------------------/13*--|
D|--3*-2*-0**---3*-2*-0*-------|


Breakdown:
G|---------------------------------------------------------------------|
D|---------------------------------------------------------------------|
A|---------------------------------------------------------------------|
D|--3-3-3-3-3-3---6-6-6-6-6-6---7-7-7-7-7---10-10-10-10---11-11-11-11--|   x 2

Outro:

G|-----------------------|
D|-----------------------|
A|-----------------------|
D|--0-0-13-0-12-0-10-12--|   x 3

  then

G|----------------------|
D|----------------------|
A|----------------------|
D|--0-0-13-0-9/15-9/15--|

G|-----------------------|
D|-----------------------|
A|-----------------------|
D|--0-0-13-0-12-0-10-12--|   x 4

G|------|
D|------|
A|------|
D|--0~--|


Pleeeeeeeeease rate!!  Thanks    :-)
il buon Teo
Comments