Muse - Sober Chords & Tabs

 

Sober Chords & Tabs

Muse Chords & Tabs

Version: 1 Type: Chords 0 ratings
1 star 2 stars 3 stars 4 stars 5 stars
comments

Sober Chords

   
sober by muse
album: showbiz

------------------------------------------------------------
--12---12---12---12-----------------------------------------
-------------------------------10---10---10---10------------
-----9-----9-----9-----9----------9----9----9----9----------
------------------------------------------------------------
------------------------------------------------------------

        A)  5 BARS,               B)   then this

[ Tab from: http://www.guitartabs.cc/tabs/m/muse/sober_crd.html ]
------------------------------------------------------------
--12---12---12---12-----------------------------------------
--------------------------------13----13----13----13--------
-----9----9----9----9--------------9-----9-----9-----9------
------------------------------------------------------------
------------------------------------------------------------

         then it's  (A)          C)   then this, followed by
                                      A, B, A and C one bar
                                      of each   

CHORUS BIT PLAY TWICE, WHICH IS.... "AND YOU'RE THE ONLY REASON"
------------------------------------------------------------------
------------------------------------------------------------------
---------4-------4--------------------------------------4-----4---
------------------------------------------------------------------
-----2-------2--------------------------------------2------2------
--3---------------------------------------------------------------

THEN THE WHOLE THING GETS BORING BUT YOU'VE GOT THE GIST OF IT I THINK
Comments