Muse - Sing For Absolution Chords & Tabs

 

Sing For Absolution Chords & Tabs

Muse Chords & Tabs

Version: 1 Type: Tab 2 ratings
1 star 2 stars 3 stars 4 stars 5 stars
comments

Sing For Absolution Tab

Muse - Sing For Absolution.

Intro - Piano for Guitar.

E||--------------------------|--------------------------|
B||--6-----------------8-----|--6-----------------8-----|
G||--------------------------|--------------------------|
D||--------7-----8-----------|--------7-----8-----------|
A||--5--5-----5-----5-----5--|--5--5-----5-----5-----5--|
E||--------------------------|--------------------------|



--------------------------|--------------------------|
--6-----------------8-----|--6-----------------8-----|
--------------------------|--------------------------|
--------7-----8-----------|--------7-----8-----------|
--------------------------|--------------------------|
--6--6-----6-----6-----6--|--6--6-----6-----6-----6--|



--------------------------|--------------------------|
--5-----------------6-----|--5-----------------6-----|
--------------7-----------|--------------7-----------|
--------6-----------------|--------6-----------------|
--------------------------|--------------------------|
--0--0-----0-----0-----0--|--0--0-----0-----0-----0--|



--------------------------|--------------------------||
--5-----------------6-----|--5-----------------6-----||
--------------6-----------|--------------6-----------||
--------5-----------------|--------5-----------------||
--0--0-----0-----0-----0--|--0--0-----0-----0-----0--||
--------------------------|--------------------------||


Verse - Clean with tremelo effect and delay

E||----------------------|----------------------|----------------------|
B||--6--------------8----|--6--------------8----|--6--------------8----|
G||----------------------|----------------------|----------------------|
D||-------7----8---------|-------7----8---------|-------7----8---------|
A||----------------------|----------------------|----------------------|
E||----------------------|----------------------|----------------------|



----------------------|----------------------|----------------------|
--6--------------8----|--5--------------6----|--5--------------6----|
----------------------|------------7---------|------------7---------|
-------7----8---------|-------6--------------|-------6--------------|
----------------------|----------------------|----------------------|
----------------------|----------------------|----------------------|



----------------------|----------------------||
--5--------------6----|--5--------------(5)--||
------------6---------|------------6---------|| X2 (2nd time note in
-------5--------------|-------5--------------||     parenthisis is 
----------------------|----------------------||     missed)
----------------------|----------------------||

E||---------------------||
B||---------------------||
G||---------------------||
D||---------------------||
A||------------0--0--2--||
E||---------------------||


Chorus - Overdriven Guitar

E||------------------0-------------0-|----------0---------------3-------|
B||----------1---------1-----1-------|--------1---1-----------1---1---1-|
G||------0-----0---0-------0---2-----|------0-------0-------0-------0---|
D||----2---2-----2-------2-------0---|----2-----------2---2-------------|
A||--3-------------------------------|--3---------------3---------------|
E||----------------------------------|----------------------------------|



----------3-------3-------3-------|----------3-------3-------3-------|
------3-----3---3---3---3---3---3-|------3-----3---3---3---3---3---3-|
----3---3-----3-------3-------3---|----3---3-----3-------3-------3---|
----------------------------------|----------------------------------|
----------------------------------|----------------------------------|
--3-------------------------------|--3-------------------------------|



------------------0-------------0-|----------0-------1-------3-------|
----------1---------1-----1-------|--------1---1-------1---1---1---1-|
------0-----0---0-------0---2-----|------0-------0-------0-------0---|
----2---2-----2-------2-------0---|----2-----------2-----------------|
--3-------------------------------|--3-------------------------------|
----------------------------------|----------------------------------|


[ Tab from: http://www.guitartabs.cc/tabs/m/muse/sing_for_absolution_tab.html ]
----------3-------3-------3-------|--5-------5-------5-------5-------||
------3-----3---3---3---3---3---3-|----3---3---3---3---3---3---3---3-||
----3---3-----3-------3-------3---|------3-------3-------3-------3---||
----------------------------------|----------------------------------||
----------------------------------|----------------------------------||
--3-------------------------------|----------------------------------||


Solo - Distortion, loads of effects and wah

E||-------------------|---------------------|-------------------|
B||-------------------|---------------------|-------------------|
G||-------------------|----------9----10----|-------------------|
D||-------------------|----------x----x-----|-------------------|
A||--5~---------------|----------7----8-----|-------------------|
E||-------------------|---------------------|--6~---------------|



---------------------|-------------------|---------------------|
---------------------|-------------------|---------------------|
----------9----10----|-------------------|----------9----10----|
----------x----x-----|-------------------|----------x----x-----|
----------7----8-----|-------------------|----------7----8-----|
---------------------|--4~---------------|---------------------|



---------------------|-------------------||
---------------------|-------------------||
---------------------|-------------------||
---------------------|-------------------||
--8------------7h-5--|--7~---------------||
---------------------|-------------------||

Bridge - Two Guitars here (the rhythym guitar is clean and the lead is overdriven/distorted)

Rhythym:
E||--------------------------|--------------------------|
B||--6--6--6--6--6--6--6--6--|--6--6--6--6--6--6--6--6--|
G||--7--7--7--7--7--7--7--7--|--7--7--7--7--7--7--7--7--|
D||--7--7--7--7--7--7--7--7--|--7--7--7--7--7--7--7--7--|
A||--5--5--5--5--5--5--5--5--|--5--5--5--5--5--5--5--5--|
E||--------------------------|--------------------------|



--------------------------|--------------------------|
--3--3--3--3--3--3--3--3--|--3--3--3--3--3--3--3--3--|
--3--3--3--3--3--3--3--3--|--3--3--3--3--3--3--3--3--|
--3--3--3--3--3--3--3--3--|--3--3--3--3--3--3--3--3--|
--1--1--1--1--1--1--1--1--|--1--1--1--1--1--1--1--1--|
--------------------------|--------------------------|



--0--0--0--0--0--0--0--0--|--0--0--0--0--0--0--0--0--|
--0--0--0--0--0--0--0--0--|--0--0--0--0--0--0--0--0--|
--1--1--1--1--1--1--1--1--|--1--1--1--1--1--1--1--1--|
--2--2--2--2--2--2--2--2--|--2--2--2--2--2--2--2--2--|
--2--2--2--2--2--2--2--2--|--2--2--2--2--2--2--2--2--|
--0--0--0--0--0--0--0--0--|--0--0--0--0--0--0--0--0--|



--0--0--0--0--0--0--0--0--|--0--0--0--0--0--0--0--0--|--5--||
--2--2--2--2--2--2--2--2--|--2--2--2--2--2--2--2--2--|--6--||
--2--2--2--2--2--2--2--2--|--2--2--2--2--2--2--2--2--|--7--||
--2--2--2--2--2--2--2--2--|--2--2--2--2--2--2--2--2--|--7--||(hold chord
--0--0--0--0--0--0--0--0--|--0--0--0--0--0--0--0--0--|--5--|| until end)
--------------------------|--------------------------|-----||


Lead:
E||-------------------|--------------------|-------------------|
B||-------------------|--------------------|-------------------|
G||-------------------|--------------------|-------------------|
D||--0----------------|----------2----3----|--3----------------|
A||-------------------|--------------------|-------------------|
E||-------------------|--------------------|-------------------|



------------------|-------------------|-------------------|------------------
------------------|-------------------|-------------------|------------------
------------------|-------------------|-------------------|------------------
------------------|--5b---------------|----------------6h-|--7---------------
------------------|-------------------|-------------------|------------------
------------------|-------------------|-------------------|------------------



------------------|----------------------|--------------||
------------------|--6--------------8----|--------------||
------------------|----------------------|--------------||
------------------|-------7----8---------|--Feedback----||
------------------|----------------------|--------------||
------------------|----------------------|--------------||


Order:

Intro
Verse
Chorus
Intro
Verse
Chorus
Solo
Bridge
Comments