Muse - Sing For Absolution Chords & Tabs

 

Sing For Absolution Chords & Tabs

Muse Chords & Tabs

Version: 4 Type: Bass Tab 0 ratings
1 star 2 stars 3 stars 4 stars 5 stars
comments

Sing For Absolution Bass Tab

   
Song - Sing for Absolution
Artist - Muse
Tabber - Zeidrich
Should go something like this (miss out D notes first time round):

G|-----------------------------------------------------|
D|-----------------------------------------------------|
A|-5-5--5--5--5-5-5--5--5--5-1-1--1--1--1-1-1--1--1--1-|
E|-----------------------------------------------------|

G|------------------------------------------------------|
D|------------------------------------------------------|
A|-7-7--7--7--7-7-7--7--7--7-0-0--0--0--0-0-0--0--0-3-0-|
E|------------------------------------------------------|

Chorus:

G|-----------------------------------------------------------------|
D|-----------------------------------------------------------------|
A|-0-0-2-3-3-3-3-3-3-3-3-3-3-3-3-8-8-10-10-10-10-10-10-10-10-10-10-|
E|-----------------------------------------------------------------|
[ Tab from: http://www.guitartabs.cc/tabs/m/muse/sing_for_absolution_btab_ver_4.html ]
G|-----------------------------------------------------------------------------|
D|-----------------------------------------------------------------------------|
A|-----------------------------------------------------------------------------|
E|-13-13-12-12-8-8-8-8-8-8-8-8-8-8-8-8-6-6-5-5-3-3-3-3-3-3-3-3-3-3-3-3-3-3-3-3-|

Solo part is just verse with a kinda more straightforward rythym:

G|-----------------------------------------------------------------|
D|-----------------------------------------------------------------|
A|-5-5-5-5-5-5-5-5-5-5-5-5-5-5-5-5-1-1-1-1-1-1-1-1-1-1-1-1-1-1-1-1-|
E|-----------------------------------------------------------------|

G|-----------------------------------------------------------------|
D|-----------------------------------------------------------------|
A|-----------------------------------------------------------------|
E|-0-0-0-0-0-0-0-0-0-0-0-0-0-0-0-0-5-5-5-5-5-5-5-5-5-5-5-5-5-5-5-7-|

Rest is just chorus then weird outro is just solo part again
Comments