Muse - Showbiz Chords & Tabs

 

Showbiz Chords & Tabs

Muse Chords & Tabs

Version: 1 Type: Bass Tab 0 ratings
1 star 2 stars 3 stars 4 stars 5 stars
comments

Showbiz Bass Tab

   
Muse - "Showbiz"

Symboles utilisés:
  ! présent sous une note: claquez la note plus fortement.
  /  slide (fallait-il le préciser).
  ____////  représente la montée (de plus en plus fort).



Partie A:

G: |-----------------------------------------|
D: |-----------------------------------------|*	4 x
A: |-----------------------------------------|*
E: |-2-2-2-2--2-2-2-2--2-2-2-2--2-2-2-2-|
       !         !           !          !           !     !


Partie B:

G: |-----------------------------------------|----------------------------------------|
D: |-----------------------------------------|--------4--------------4----------------|*	2x
A: |-----------------------------------------|------------------------------------4---|*
E: |-2-2-2-2--2-2-2-2--2-2-2-2--2-2-2-2-|-5-2-2----2-2-5-2--2---2-2--5-2---2-|
       !         !           !          !           !      !        !                    !                       !

Partie C:

G: |--------------------------------------|---------------------------------|---------------------------------|
D: |--------------------------------------|---------------------------------|---------------------------------|
A: |-2-2-2-2-2-2-2-2-2-2-2-2-2-2-2-2------|---------------------------------|-2-2-2-2-2-2-2-2-2-2-2-2-2-2-2-2-|
E: |--------------------------------------|-5-5-5-5-5-5-5-5-5-5-5-5-5-5-5-5-|---------------------------------|

G: |-----------------------------------------|------------------------------------|
D: |-----------------------------------------|------------------------------------|
A: |-----------------------------------------|-5-5-5-5--5-5-5-5--5-5-5-5--5-5-5-5-|
E: |-2-2-2-2--2-2-2-2--2-2-2-2--2-2-2-2-|-----------------------------------------|
      ________________//////////////////////////     _______________/////////////////////////////

G: |-----------------------------------------|------------------------------------------|
D: |-----------------------------------------|------------------------------------------|
A: |-4-4-4-4--4-4-4-4--4-4-4-4--4-4-4-4------|-2-2-2-2--2-2-2-2--2-2-2-2--2-2-2-0-------|
E: |-----------------------------------------|------------------------------------------|
      ________________//////////////////////////     _______________/////////////////////////////


Partie D:

G: |-----------------------------------------|
D: |-----------------------------------------|*	2x
A: |-----------------------------------------|*
E: |-2-2-2-2--2-2-2-2--2-2-2-2--2-2-2-2------|

G: |---------------------------------------|
D: |-4-----4------4-------4------4---4-----|*	2x
A: |---------------------------------------|*
E: |---2-2----2-2---2--2---2-2----2---2----|

[ Tab from: http://www.guitartabs.cc/tabs/m/muse/showbiz_btab.html ]
Partie E:

G: |-----------------------------------------|-------------------------------------|
D: |-----------------------------------------|-------------------------------------|
A: |-5-5-5-5--5-5-5-5--5-5-5-5--5-5-5-5------|-2-2-2-2--2-2-2-2--2-2-2-2--2-2-2-4--|
E: |-----------------------------------------|-------------------------------------|

G: |-----------------------------------------|----------------------------------------|
D: |-----------------------------------------|----------------------------------------|
A: |-5-5-5-5--5-5-5-5--5-5-5-5--5-5-5-5------|-2-2-2-2--2-2-2-2--/14-12/14-12/14------|
E: |-----------------------------------------|----------------------------------------|


Partie F:

G: |-----------------------------------------|-----------------------------------------|
D: |-----------------------------------------|-----------------------------------------|
A: |-----------------------------------------|-5-5-5-5--5-5-5-5--5-5-5-5--5-5-5-5------|
E: |-2-2-2-2--2-2-2-2--2-2-2-2--2-2-2-2------|-----------------------------------------|

G: |-----------------------------------------|-----------------------------------------|
D: |-----------------------------------------|-----------------------------------------|
A: |-4-4-4-4--4-4-4-4--4-4-4-4--4-4-4-4------|-2-2-2-2--2-2-2-2--2-2-2-2--2-2-2-2------|
E: |-----------------------------------------|-----------------------------------------|

G: |-----------------------------------------|-----------------------------------------|
D: |-----------------------------------------|-----------------------------------------|
A: |-----------------------------------------|-5-5-5-5--5-5-5-5--5-5-5-5--5-5-5-5------|
E: |-2-2-2-2--2-2-2-2--2-2-2-2--2-2-2-2------|-----------------------------------------|

G: |-----------------------------------------|-----------------------------------------|
D: |-----------------------------------------|-----------------------------------------|
A: |-4-4-4-4--4-4-4-4--4-4-4-4--4-4-4-4------|-2-2-2-2--2-2-2-2--/14-12/14-12/14-------|
E: |-----------------------------------------|-----------------------------------------|


Partie G
G: |-----------------------------------------|
D: |-4-4-4-4--4-4-4-4--4-4-4-4--4-4-4-4------|*	3x
A: |-----------------------------------------|*
E: |-----------------------------------------|

G: |---------------------------------------|------------------------------------|
D: |---4---4----4---4----4---4----4---4----|---4---4----4---4----4---4----4---4-|*	2x
A: |-5---5----5---5----5---5----5---5------|-2---2----2---2----2---2----2---2---|*	2x
E: |---------------------------------------|------------------------------------|


Structure:  A--B--C--D--E--F--G--F--F--F
Comments