Muse - Plug In Baby Chords & Tabs

 

Plug In Baby Chords & Tabs

Muse Chords & Tabs

Version: 9 Type: Tab 0 ratings
1 star 2 stars 3 stars 4 stars 5 stars
comments

Plug In Baby Tab

   
Song: Plug In Baby
Album : Origin Of Symmetry
Artist: Muse

Ok. This tab is How really Matt Bellamy Play The song, I see it in
Some Live videos, so this tab is very acurate.

Standard Tunning ( e - B - G - D - A - E )

h: Hammer On
p: Pull off
b: Bend
Intro ( Main riff ):

e|-----------------------------|----------------------------------|
B|-----------------------------|----------------------------------|
G|-----------------------------|----------9--11h12p11--9----------|
D|--8--9--11--8--9--11--12--9--|--11--12------------------12-11---|
A|-----------------------------|----------------------------------|
E|-----------------------------|----------------------------------|

e|-------------------------------|-----------------------------------|
B|-------------------------------|-----------------------------------|
G|------------------------9------|---------11--11h12p11--10--11--10--|
D|--9--11--12--9--11--12-----11--|--12--9----------------------------|
A|-------------------------------|-----------------------------------|
E|-------------------------------|-----------------------------------|

e|--------------------------|------------------------|
B|--7-----------------7--9--|--9b--7--6--7-----------|
G|-----7-----------7--------|---------------7--6--7--|
D|--------7-----7-----------|------------------------|
A|-----------4--------------|------------------------|
E|--------------------------|------------------------|

e|-----------------------------|----------------------------------|
B|-----------------------------|----------------------------------|
G|-----------------------------|----------9--11h12p11--9----------|
D|--8--9--11--8--9--11--12--9--|--11--12------------------12-11---|
A|-----------------------------|----------------------------------|
E|-----------------------------|----------------------------------|

e|-------------------------------|-----------------------------------|
B|-------------------------------|-----------------------------------|
G|------------------------9------|---------11--11h12p11--10--11--10--|
D|--9--11--12--9--11--12-----11--|--12--9----------------------------|
A|-------------------------------|-----------------------------------|
E|-------------------------------|-----------------------------------|

e|--------------------------|------------------------|
B|--7-----------------7--9--|--9b--7--6--7-----------|
G|-----7-----------7--------|---------------7--6--7--|
D|--------7-----7-----------|------------------------|
A|-----------4--------------|------------------------|
E|--------------------------|------------------------|

e|-----------------------------|----------------------------------|
B|-----------------------------|----------------------------------|
G|-----------------------------|----------9--11h12p11--9----------|
D|--8--9--11--8--9--11--12--9--|--11--12------------------12-11---|
A|-----------------------------|----------------------------------|
E|-----------------------------|----------------------------------|

e|-----|
B|-----|
G|-----| Fade out . Verse enter Here
D|--9--|
A|-----|
E|-----|


Before of The Pre-Chorus there´s a little arpegios, this arpegios are played of this way :


e|-------------|--------------|------------|--------------|
B|--10---------|--11----------|--12--------|--10----------|
G|-----11------|------11------|-----13-----|------11------|
D|---------12--|----------11--|--------12--|----------12--|
A|-------------|--------------|------------|--------------|
E|-------------|--------------|------------|--------------|

Pre-Chorus :

e|--------------------------|---------------------------------|
B|--------------------------|---------------------------------|
G|--------------------------|------------------------------0--|
D|--------------------------|--10--10--10--10--10--10--10--0--|
A|--9--9--9--9--9--9--9--9--|---9---9---9---9---9---9---9--0--|
E|--9--9--9--9--9--9--9--9--|---9---9---9---9---9---9---9--0--|

Chorus ( the timming is in order you got to listen the song for played in correct form ):

e|--------------------------|      e|--------------------------|
B|--3--3--3--3--3--3--3--3--|      B|--------------------------|
G|--4--4--4--4--4--4--4--4--|(X 2) G|--4--4--4--4--4--4--4--4--|
D|--5--5--5--5--5--5--5--5--|      D|--4--4--4--4--4--4--4--4--|
A|--5--5--5--5--5--5--5--5--|      A|--2--2--2--2--2--2--2--2--|
E|--x--x--x--x--x--x--x--x--|      E|--------------------------|

e|--2--2--2--2--2--2--2--2--|
B|--2--2--2--2--2--2--2--2--|
G|--4--4--4--4--4--4--4--4--|
D|--4--4--4--4--4--4--4--4--|
A|--2--2--2--2--2--2--2--2--|
E|--2--2--2--2--2--2--2--2--|

e|--------------------------|      e|--------------------------|
B|--3--3--3--3--3--3--3--3--|      B|--------------------------|
G|--4--4--4--4--4--4--4--4--|(X 2) G|--4--4--4--4--4--4--4--4--|
D|--5--5--5--5--5--5--5--5--|      D|--4--4--4--4--4--4--4--4--|
A|--5--5--5--5--5--5--5--5--|      A|--2--2--2--2--2--2--2--2--|
E|--x--x--x--x--x--x--x--x--|      E|--------------------------|

e|--2--2--2--2--2--2--2--2--|
B|--2--2--2--2--2--2--2--2--|
G|--4--4--4--4--4--4--4--4--|
D|--4--4--4--4--4--4--4--4--|
A|--2--2--2--2--2--2--2--2--|
E|--2--2--2--2--2--2--2--2--|

e|--------------------------|      e|--------------------------|
B|--3--3--3--3--3--3--3--3--|      B|--------------------------|
G|--4--4--4--4--4--4--4--4--|(X 2) G|--4--4--4--4--4--4--4--4--|
D|--5--5--5--5--5--5--5--5--|      D|--4--4--4--4--4--4--4--4--|
A|--5--5--5--5--5--5--5--5--|      A|--2--2--2--2--2--2--2--2--|
E|--x--x--x--x--x--x--x--x--|      E|--------------------------|

e|--2--2--2--2--2--2--2--2--|
B|--2--2--2--2--2--2--2--2--|
G|--4--4--4--4--4--4--4--4--|
D|--4--4--4--4--4--4--4--4--|
A|--2--2--2--2--2--2--2--2--|
E|--2--2--2--2--2--2--2--2--|

e|--------------------------|--------------------------|
B|--3--3--3--3--3--3--3--3--|--3--3--3--3--3-----------|
G|--4--4--4--4--4--4--4--4--|--4--4--4--4--4-----------|
D|--5--5--5--5--5--5--5--5--|--5--5--5--5--5--7--7--7--|
A|--5--5--5--5--5--5--5--5--|--5--5--5--5--5--7--7--7--|
E|--x--x--x--x--x--x--x--x--|--x--x--x--x--x--5--5--5--|

e|--2--2--2--2--2--2--2--2--|
B|--3--3--3--3--3--3--3--3--|
G|--2--2--2--2--2--2--2--2--| (X 2)
D|--0--0--0--0--0--0--0--0--|
A|--0--0--0--0--0--0--0--0--|
E|--------------------------|

Enter Main Riff :

e|-----------------------------|----------------------------------|
B|-----------------------------|----------------------------------|
G|-----------------------------|----------9--11h12p11--9----------|
D|--8--9--11--8--9--11--12--9--|--11--12------------------12-11---|
A|-----------------------------|----------------------------------|
E|-----------------------------|----------------------------------|

e|-------------------------------|-----------------------------------|
B|-------------------------------|-----------------------------------|
G|------------------------9------|---------11--11h12p11--10--11--10--|
D|--9--11--12--9--11--12-----11--|--12--9----------------------------|
A|-------------------------------|-----------------------------------|
E|-------------------------------|-----------------------------------|

e|--------------------------|------------------------|
B|--7-----------------7--9--|--9b--7--6--7-----------|
G|-----7-----------7--------|---------------7--6--7--|
D|--------7-----7-----------|------------------------|
A|-----------4--------------|------------------------|
E|--------------------------|------------------------|

e|-----------------------------|----------------------------------|
B|-----------------------------|----------------------------------|
G|-----------------------------|----------9--11h12p11--9----------|
D|--8--9--11--8--9--11--12--9--|--11--12------------------12-11---|
A|-----------------------------|----------------------------------|
E|-----------------------------|----------------------------------|

e|-----|
B|-----|
G|-----| Fade out . Verse 2 Enter Here
D|--9--|
A|-----|
E|-----|
[ Tab from: http://www.guitartabs.cc/tabs/m/muse/plug_in_baby_tab_ver_9.html ]
Arpegios Before Of the Pre-Chorus enter again :

e|-------------|--------------|------------|--------------|
B|--10---------|--11----------|--12--------|--10----------|
G|-----11------|------11------|-----13-----|------11------|
D|---------12--|----------11--|--------12--|----------12--|
A|-------------|--------------|------------|--------------|
E|-------------|--------------|------------|--------------|

Pre-Chorus :

e|--------------------------|---------------------------------|
B|--------------------------|---------------------------------|
G|--------------------------|------------------------------0--|
D|--------------------------|--10--10--10--10--10--10--10--0--|
A|--9--9--9--9--9--9--9--9--|---9---9---9---9---9---9---9--0--|
E|--9--9--9--9--9--9--9--9--|---9---9---9---9---9---9---9--0--|

Chorus  :

|--------------------------|      e|-----------------------------|
B|--3--3--3--3--3--3--3--3--|      B|----------------------------|
G|--4--4--4--4--4--4--4--4--|(X 2) G|--4--4--4--4--4--4--4--4----|
D|--5--5--5--5--5--5--5--5--|      D|--4--4--4--4--4--4--4--4----|
A|--5--5--5--5--5--5--5--5--|      A|--2--2--2--2--2--2--2--2----|
E|--x--x--x--x--x--x--x--x--|      E|----------------------------|

e|--2--2--2--2--2--2--2--2--|
B|--2--2--2--2--2--2--2--2--|
G|--4--4--4--4--4--4--4--4--|
D|--4--4--4--4--4--4--4--4--|
A|--2--2--2--2--2--2--2--2--|
E|--2--2--2--2--2--2--2--2--|

e|--------------------------|      e|--------------------------|
B|--3--3--3--3--3--3--3--3--|      B|--------------------------|
G|--4--4--4--4--4--4--4--4--|(X 2) G|--4--4--4--4--4--4--4--4--|
D|--5--5--5--5--5--5--5--5--|      D|--4--4--4--4--4--4--4--4--|
A|--5--5--5--5--5--5--5--5--|      A|--2--2--2--2--2--2--2--2--|
E|--x--x--x--x--x--x--x--x--|      E|--------------------------|

e|--2--2--2--2--2--2--2--2--|
B|--2--2--2--2--2--2--2--2--|
G|--4--4--4--4--4--4--4--4--|
D|--4--4--4--4--4--4--4--4--|
A|--2--2--2--2--2--2--2--2--|
E|--2--2--2--2--2--2--2--2--|

e|--------------------------|      e|--------------------------|
B|--3--3--3--3--3--3--3--3--|      B|--------------------------|
G|--4--4--4--4--4--4--4--4--|(X 2) G|--4--4--4--4--4--4--4--4--|
D|--5--5--5--5--5--5--5--5--|      D|--4--4--4--4--4--4--4--4--|
A|--5--5--5--5--5--5--5--5--|      A|--2--2--2--2--2--2--2--2--|
E|--x--x--x--x--x--x--x--x--|      E|--------------------------|

e|--2--2--2--2--2--2--2--2--|
B|--2--2--2--2--2--2--2--2--|
G|--4--4--4--4--4--4--4--4--|
D|--4--4--4--4--4--4--4--4--|
A|--2--2--2--2--2--2--2--2--|
E|--2--2--2--2--2--2--2--2--|

e|--------------------------|--------------------------|
B|--3--3--3--3--3--3--3--3--|--3--3--3--3--3-----------|
G|--4--4--4--4--4--4--4--4--|--4--4--4--4--4-----------|
D|--5--5--5--5--5--5--5--5--|--5--5--5--5--5--7--7--7--|
A|--5--5--5--5--5--5--5--5--|--5--5--5--5--5--7--7--7--|
E|--x--x--x--x--x--x--x--x--|--x--x--x--x--x--5--5--5--|

e|--2--2--2--2--2--2--2--2--|
B|--3--3--3--3--3--3--3--3--|
G|--2--2--2--2--2--2--2--2--| (X 2)
D|--0--0--0--0--0--0--0--0--|
A|--0--0--0--0--0--0--0--0--|
E|--------------------------|


After of the end Chorus you´ll play the Main riff for the Outro :

e|-----------------------------|----------------------------------|
B|-----------------------------|----------------------------------|
G|-----------------------------|----------9--11h12p11--9----------|
D|--8--9--11--8--9--11--12--9--|--11--12------------------12-11---|
A|-----------------------------|----------------------------------|
E|-----------------------------|----------------------------------|

e|-------------------------------|-----------------------------------|
B|-------------------------------|-----------------------------------|
G|------------------------9------|---------11--11h12p11--10--11--10--|
D|--9--11--12--9--11--12-----11--|--12--9----------------------------|
A|-------------------------------|-----------------------------------|
E|-------------------------------|-----------------------------------|

e|--------------------------|------------------------|
B|--7-----------------7--9--|--9b--7--6--7-----------|
G|-----7-----------7--------|---------------7--6--7--|
D|--------7-----7-----------|------------------------|
A|-----------4--------------|------------------------|
E|--------------------------|------------------------|

e|-----------------------------|----------------------------------|
B|-----------------------------|----------------------------------|
G|-----------------------------|----------9--11h12p11--9----------|
D|--8--9--11--8--9--11--12--9--|--11--12------------------12-11---|
A|-----------------------------|----------------------------------|
E|-----------------------------|----------------------------------|

e|-------------------------------|-----------------------------------|
B|-------------------------------|-----------------------------------|
G|------------------------9------|---------11--11h12p11--10--11--10--|
D|--9--11--12--9--11--12-----11--|--12--9----------------------------|
A|-------------------------------|-----------------------------------|
E|-------------------------------|-----------------------------------|

e|--------------------------|------------------------|
B|--7-----------------7--9--|--9b--7--6--7-----------|
G|-----7-----------7--------|---------------7--6--7--|
D|--------7-----7-----------|------------------------|
A|-----------4--------------|------------------------|
E|--------------------------|------------------------|

e|-----------------------------|----------------------------------|
B|-----------------------------|----------------------------------|
G|-----------------------------|----------9--11h12p11--9----------|
D|--8--9--11--8--9--11--12--9--|--11--12------------------12-11---|
A|-----------------------------|----------------------------------|
E|-----------------------------|----------------------------------|

e|-------------------------------|-----------------------------------|
B|-------------------------------|-----------------------------------|
G|------------------------9------|---------11--11h12p11--10--11--10--|
D|--9--11--12--9--11--12-----11--|--12--9----------------------------|
A|-------------------------------|-----------------------------------|
E|-------------------------------|-----------------------------------|

e|--------------------------|------------------------|
B|--7-----------------7--9--|--9b--7--6--7-----------|
G|-----7-----------7--------|---------------7--6--7--|
D|--------7-----7-----------|------------------------|
A|-----------4--------------|------------------------|
E|--------------------------|------------------------|

e|-----------------------------|----------------------------------|
B|-----------------------------|----------------------------------|
G|-----------------------------|----------9--11h12p11--9----------|
D|--8--9--11--8--9--11--12--9--|--11--12------------------12-11---|
A|-----------------------------|----------------------------------|
E|-----------------------------|----------------------------------|

e|-----|
B|-----|
G|-----| Fade out
D|--9--|
A|-----|
E|-----|


You Can Play this during the outro riff for a complet sound:

e|----------------------------------|
B|----------------------------------|
G|--11--11--11--11--11--11--11--11--| (X 2)
D|--11--11--11--11--11--11--11--11--|
A|---9---9---9---9---9---9---9---9--|
E|----------------------------------|

e|----------------------------------|
B|----------------------------------|
G|--12--12--12--12--12--12--12--12--|
D|--12--12--12--12--12--12--12--12--| (X 2)
A|--10--10--10--10--10--10--10--10--|
E|----------------------------------|

e|--------------------------|
B|--7--7--7--7--7--7--7--7--|
G|--7--7--7--7--7--7--7--7--| (X 2)
D|--7--7--7--7--7--7--7--7--|
A|--5--5--5--5--5--5--5--5--|
E|--------------------------|

The Chords of above are plaing 3 times together.

Ok...Sorry for my poor english..i think is much better than the other tabs of this 
song..Enjoy...Muse Rock´s The World..

That´s all,Have Funˇˇˇ
Comments