Muse - Plug In Baby Chords & Tabs

 

Plug In Baby Chords & Tabs

Muse Chords & Tabs

Version: 8 Type: Tab 0 ratings
1 star 2 stars 3 stars 4 stars 5 stars
comments

Plug In Baby Tab

   
-------------------------------------------------------------------------------
			     PLUG IN BABY - Muse
-------------------------------------------------------------------------------
Tabbed by:Aaron Heinemann
Email:al_kh89@hotmail.com

Tuning:Normal

e|------------------|-------------------|-----------------|------------------|
B|------------------|-------7h8h7-------|-----------------|-----7-7h8h7------|
G|------6-----6-7---|-6-7-9-------9-7-6-|---6-7---6-7-9-6-|-7-9---------10-10|
D|--8-9---8-9-----9-|-------------------|-9-----9---------|------------------|
A|------------------|-------------------|-----------------|------------------|
E|------------------|-------------------|-----------------|------------------|

e|-----------------|-----------------|-----------------|---------------------|
B|-7-----------7-9-|-9b-7----7-------|-----------------|-------7h8h7---------|
G|---7-------7-----|------10---7-6-7-|-----6-----6-7---|-6-7-9-------9-7-6---|
D|-----7---7-------|-----------------|-8-9---8-9-----9-|-------------------9-|
A|-------9---------|-----------------|-----------------|---------------------|
E|-----------------|-----------------|-----------------|---------------------|

1. With bassline shown above lyrics:

   G                          D
            I've exposed your lies baby.
   F#                         G
 ----.    The underneath's no big surprise, now it's time---


e|-------------|---------|-------------|-----------|--------|-------------|
B|-10----------|---------|-11----------|-----------|-12-----|-------------|
G|----11-------|---------|----11-------|-----------|---12---|-------------|
D|-------12----|---------|-------11----|-----------|-----12-|-------------|
A|-------------|---------|-------------|-----------|--------|-------------|
E|-------------|---------|-------------|-----------|--------|-------------|
  --       for changing------------ and cleansing everything to forget your


e|----------------|-------------||
B|-10-------------|-------------||
G|----11----------|-------------||
D|-------12-------|-------------||
A|----------------|-------------||
E|----------------|-------------||
- love.--------------


e|-------------------------|-------------------------||
B|-------------------------|-------------------------||
G|-11-11-11-11-11-11-11-11-|-------------------------||
D|-11-11-11-11-11-11-11-11-|-10-10-10-10-10-10-10-10-||
A|-9--9--9--9--9--9--9--9--|-9--9--9--9--9--9--9--9--||
E|-------------------------|-------------------------||

  |---2 bars-----| |--1 bar-| |---1 bar----| |---2 bars--------------------|
e|-3--(strumming)-|-2--------|-2------------|-3-----------------------------|
B|-3--------------|-3--------|-3------------|-3-----------------------------|
G|-4--------------|-4--------|-4------------|-4-----------------------------|
D|-5--------------|-4--------|-4------------|-5-----------------------------|
A|-5--------------|-2--------|-2------------|-5-----------------------------|
E|-3--------------|----------|-2------------|-3-----------------------------|
  My plug in baby -----      crucifies my en-emies. When im tired of giving.

  |-1 bar-| |-1 bar-|
e|-2-------|-0-------|
B|-3-------|-3-------|
G|-4-------|-3-------|
D|-4-------|-4-------|
A|-2-------|---------|
E|---------|-2-------|
                 Woh.

  |---2 bars-----| |--1 bar-| |---1 bar----| |---2 bars--------------------|
e|-3--(strumming)-|-2--------|-2------------|-3-----------------------------|
B|-3--------------|-3--------|-3------------|-3-----------------------------|
G|-4--------------|-4--------|-4------------|-4-----------------------------|
D|-5--------------|-4--------|-4------------|-5-----------------------------|
A|-5--------------|-2--------|-2------------|-5-----------------------------|
E|-3--------------|----------|-2------------|-3-----------------------------|
  My plug in baby -----  in unbroken virgin realities, is tired of living.

  |---2 bars-----|
e|----------------|
B|-7--------------|
G|-7--------------|
D|-7--------------|
A|-5--------------|
E|----------------|

e|------------------|-------------------|-----------------|------------------|
B|------------------|-------7h8h7-------|-----------------|-----7-7h8h7----7-|
G|------6-----6-7---|-6-7-9-------9-7-6-|---6-7---6-7-9-6-|-7-9---------10-10|
D|--8-9---8-9-----9-|-------------------|-9-----9---------|------------------|
A|------------------|-------------------|-----------------|------------------|
E|------------------|-------------------|-----------------|------------------|

e|-----------------|-----------------|-----------------|---------------------|
B|-7-----------7-9-|-9b-7----7-------|-----------------|-------7h8h7---------|
G|---7-------7-----|------10---7-6-7-|-----6-----6-7---|-6-7-9-------9-7-6---|
D|-----7---7-------|-----------------|-8-9---8-9-----9-|-------------------9-|
A|-------9---------|-----------------|-----------------|---------------------|
E|-----------------|-----------------|-----------------|---------------------|

2. With bassline shown above lyrics:

   G                           D
                    Don't con -fuse baby you're gon-
   F#               G
  -na lose your own game.
[ Tab from: http://www.guitartabs.cc/tabs/m/muse/plug_in_baby_tab_ver_8.html ]
e|-------------|---------|-------------|-----------|--------|-------------|
B|-10----------|---------|-11----------|-----------|-12-----|-------------|
G|----11-------|---------|----11-------|-----------|---12---|-------------|
D|-------12----|---------|-------11----|-----------|-----12-|-------------|
A|-------------|---------|-------------|-----------|--------|-------------|
E|-------------|---------|-------------|-----------|--------|-------------|
           Change me---------,      replace the en---vy--ing to forget your

e|----------------|-------------||
B|-10-------------|-------------||
G|----11----------|-------------||
D|-------12-------|-------------||
A|----------------|-------------||
E|----------------|-------------||
- love.--------------


e|-------------------------|-------------------------||
B|-------------------------|-------------------------||
G|-11-11-11-11-11-11-11-11-|-------------------------||
D|-11-11-11-11-11-11-11-11-|-10-10-10-10-10-10-10-10-||
A|-9--9--9--9--9--9--9--9--|-9--9--9--9--9--9--9--9--||
E|-------------------------|-------------------------||

  |---2 bars-----| |--1 bar-| |---1 bar----| |---2 bars--------------------|
e|-3--(strumming)-|-2--------|-2------------|-3-----------------------------|
B|-3--------------|-3--------|-3------------|-3-----------------------------|
G|-4--------------|-4--------|-4------------|-4-----------------------------|
D|-5--------------|-4--------|-4------------|-5-----------------------------|
A|-5--------------|-2--------|-2------------|-5-----------------------------|
E|-3--------------|----------|-2------------|-3-----------------------------|
  My plug in baby -----      crucifies my en-emies. When im tired of giving.

  |-1 bar-| |-1 bar-|
e|-2-------|-0-------|
B|-3-------|-3-------|
G|-4-------|-3-------|
D|-4-------|-4-------|
A|-2-------|---------|
E|---------|-2-------|
                 Woh.

  |---2 bars-----| |--1 bar-| |---1 bar----| |---2 bars--------------------|
e|-3--(strumming)-|-2--------|-2------------|-3-----------------------------|
B|-3--------------|-3--------|-3------------|-3-----------------------------|
G|-4--------------|-4--------|-4------------|-4-----------------------------|
D|-5--------------|-4--------|-4------------|-5-----------------------------|
A|-5--------------|-2--------|-2------------|-5-----------------------------|
E|-3--------------|----------|-2------------|-3-----------------------------|
  My plug in baby -----  in unbroken virgin realities, is tired of living.

  |---2 bars-----|
e|----------------|
B|-7--------------|
G|-7--------------|
D|-7--------------|
A|-5--------------|
E|----------------|

e|------------------|-------------------|-----------------|------------------|
B|------------------|-------7h8h7-------|-----------------|-----7-7h8h7----7-|
G|------6-----6-7---|-6-7-9-------9-7-6-|---6-7---6-7-9-6-|-7-9---------10-10|
D|--8-9---8-9-----9-|-------------------|-9-----9---------|------------------|
A|------------------|-------------------|-----------------|------------------|
E|------------------|-------------------|-----------------|------------------|
                     And I've seen your lov- ing-------,              mine is

e|-----------------|-----------------|-----------------|---------------------|
B|-7-----------7-9-|-9b-7----7-------|-----------------|-------7h8h7---------|
G|---7-------7-----|------10---7-6-7-|-----6-----6-7---|-6-7-9-------9-7-6---|
D|-----7---7-------|-----------------|-8-9---8-9-----9-|---------------------|
A|-------9---------|-----------------|-----------------|---------------------|
E|-----------------|-----------------|-----------------|---------------------|
     gone,---------------------------            and I've been------ in----

e|-----------------|--------------------|
B|-----------------|-----7-7h8h----7---|
G|---6-7---6-7-9-6-|-7-9---------10---10|
D|-9-----9---------|--------------------|
A|-----------------|--------------------|
E|-----------------|--------------------|
  trou------ble.             Woo.--------

e|-----------------|-----------------|-----------------|---------------------|
B|-7-----------7-9-|-9b-7----7-------|-----------------|-------7h8h7---------|
G|---7-------7-----|------10---7-6-7-|-----6-----6-7---|-6-7-9-------9-7-6---|
D|-----7---7-------|-----------------|-8-9---8-9-----9-|---------------------|
A|-------9---------|-----------------|-----------------|---------------------|
E|-----------------|-----------------|-----------------|---------------------|
   Ahh.---------------------------------

e|-----------------|--------------------|
B|-----------------|-----7-7h8h7----7---|
G|---6-7---6-7-9-6-|-7-9---------10---10|
D|-9-----9---------|--------------------|
A|-----------------|--------------------|
E|-----------------|--------------------|

e|-----------------|-----------------|-----------------|---------------------|
B|-7-----------7-9-|-9b-7----7-------|-----------------|-------7/8\7---------|
G|---7-------7-----|------10---7-6-7-|-----6-----6-7---|-6-7-9-------9-7-6---|
D|-----7---7-------|-----------------|-8-9---8-9-----9-|-------------------9-|
A|-------9---------|-----------------|-----------------|---------------------|
E|-----------------|-----------------|-----------------|---------------------|

| /  slide up
| \  slide down
| h  hammer-on
| p  pull-off
| ~  vibrato
| +  harmonic
| x  Mute note
===============================================================================
Comments