Muse - Plug In Baby Chords & Tabs

 

Plug In Baby Chords & Tabs

Muse Chords & Tabs

Version: 4 Type: Tab 0 ratings
1 star 2 stars 3 stars 4 stars 5 stars
comments

Plug In Baby Tab

-------------------------------------------------------------------------------
			     Plug In Baby - Muse
-------------------------------------------------------------------------------

By: Bradduk
X BU Z= bend up from x to z
e|----------------------------------2-3-2------------------------------------|
B|-------------------3--------3--5---------5--3------------------------------|
G|-3--4--6--3--4--6-----4--6---------------------6---------------------------|
D|---------------------------------------------------------------------------|
A|---------------------------------------------------------------------------|
E|---------------------------------------------------------------------------|
[ Tab from: http://www.guitartabs.cc/tabs/m/muse/plug_in_baby_tab_ver_4.html ]
e|---------------------------------------------------------------------------|
B|-------------------5--------5--7--7-8-7--6--7--6--7--7-----------------7---|
G|-4--6--7-4--6--7-----6--7------------------------------7-----------7------|
D|-----------------------------------------------------------7-----7---------|
A|--------------------------------------------------------------9------------|
E|---------------------------------------------------------------------------|

e|---------------------------------------------------------------------------|
B|-9-BU-10--9--7------7---------------------------------------------7-8-7----|
G|----------------10-----7--6--7--------6---------6--7-----6--7--9-----------|
D|--------------------------------8--9------8--9--------9--------------------|
A|---------------------------------------------------------------------------|
E|---------------------------------------------------------------------------|

e|---------------------------------------------------------------------------|
B|---------------------------------------------------------------------------|
G|-9--7--6--4----------------------------------------------------------------|
D|---------------------------------------------------------------------------|
A|---------------------------------------------------------------------------|
E|---------------------------------------------------------------------------|

===============================================================================
Comments