Muse - Plug In Baby Chords & Tabs

 

Plug In Baby Chords & Tabs

Muse Chords & Tabs

Version: 1 Type: Tab 5 ratings
1 star 2 stars 3 stars 4 stars 5 stars
comments

Plug In Baby Tab

-|--------------------------------------------------------------------|--
-|-----------------------7h8p7-----------------------------7h8p7---7--|--
-|-----6-----6-7---6-7---------9-7-6---6-7---6-7-9--6-7-9------- 9---9|--
-|-8-9---8-9-----9-------------------9-----9--------------------------|--
-|--------------------------------------------------------------------|--
-|--------------------------------------------------------------------|--
                                                                                                            
-|----------------------------------------------------|--
-|--7-------7--9--9b10-7------7-----------------------|--
-|----7---7---------------10----7---7-----------------|--
-|------7-------------------------7-------------------|--
-|----------------------------------------------------|--
-|----------------------------------------------------|--

-|----------------------------------------------------|--
-|---------------------7h8p7--------------------------|--
-|-----6-----6-7---6-7-------9-7-6--------------------|--
-|-8-9---8-9-----9-----------------9-let ring---------|--
-|----------------------------------------------------|--
-|----------------------------------------------------|--
[ Tab from: http://www.guitartabs.cc/tabs/m/muse/plug_in_baby_tab.html ]
Comments