Muse - Plug In Baby Chords & Tabs

 

Plug In Baby Chords & Tabs

Muse Chords & Tabs

Version: 7 Type: Bass Tab 0 ratings
1 star 2 stars 3 stars 4 stars 5 stars
comments

Plug In Baby Bass Tab

   
Song - Plug in Baby
Artist - Muse
Tabber - Zeidrich

G|---7---------7-    ---11---------11-    ----12------------12-|
D|-----------7---    -----------11----    ---------------12----|
A|-5---x-5-5----- x2 -9---x-9-9------- x2 -10----x-10-10-------| x2
E|---------------    -----------------    ---------------------|

Play through that for intro and verse, then prechorus is just:

G|---------------------------------|
D|---------------------------------|
A|-9-9-9-9-9-9-9-9-9-9-9-9-9-9-9-9-|
E|---------------------------------|

Chorus:

G|------------------------------------------------|
D|-------------------------------------11-12-11-7-|
A|-10-10-10-10-10-10-10-10-10-10-10-10------------|
E|------------------------------------------------|

G|----------------------------------|
D|-9-9-9-9-9-9-9-9------------------|
A|-----------------9-9-9-9-9-9-9-9--|
E|----------------------------------|
[ Tab from: http://www.guitartabs.cc/tabs/m/muse/plug_in_baby_btab_ver_7.html ]
G|------------------------------------------------|
D|-------------------------------------11-12-11-7-|
A|-10-10-10-10-10-10-10-10-10-10-10-10------------|
E|------------------------------------------------|

G|----------------------------------|
D|-9-9-9-9-9-9-9-9------------------|
A|-----------------9-9-9-9---9-9-9--|
E|----------------------------------|

Repeat first two lines of chorus, then

G|-------------------------------------------------|
D|-------------------------------------------------|
A|-10-10-10-10-10-10-10-10-10-10-10-10-10-10-10-10-|
E|-------------------------------------------------|

G|-------------------------------------------------|
D|-12-12-12-12-12-12-12-12-12-12-12-12-12-12-12-12-|
A|-------------------------------------------------|
E|-------------------------------------------------|

Back to verse/intro and do it all again then you'll come to the bit where
there is the lead bit and vocals, where you do this:

G|-----------------------|
D|-----------------------|
A|-9 x16--10 x16--5 x16--| x2
E|-----------------------|

Then just back to verse/chorus riff
Comments