Muse - Plug In Baby Chords & Tabs

 

Plug In Baby Chords & Tabs

Muse Chords & Tabs

Version: 4 Type: Bass Tab 0 ratings
1 star 2 stars 3 stars 4 stars 5 stars
comments

Plug In Baby Bass Tab

   
Band:MUSE
Song:PLUG IN BABY
Tuning E,A,D,G,

Verse1
G|-------------------------------------|
D|----12----------12----12----------12-|
A|-------------12----------------12----|
E|-10----10-10-------10----10-10-------|

Verse2
G|---11--------11---11-------11-|
D|----------11-------------11---|
A|-9----9-9-------9----9-9------|
E|------------------------------|
[ Tab from: http://www.guitartabs.cc/tabs/m/muse/plug_in_baby_btab_ver_4.html ]
Verse3
G|----12----------12----12----------12-|
D|-------------12----------------12----|
A|-10----10-10-------10----10-10-------|
E|-------------------------------------|

Bridge
G|-------------------------------|
D|-------------------------------|
A|-9-9-9-9-9-9-9-9-9-9-9-9-9-9-9-|
E|-------------------------------|

Chorus
G|--------------------------------------------------------------------------------|
D|-------------------------------------10-12-10----9-9-9-9-9-9-9-9----------------|
A|-10-10-10-10-10-10-10-10-10-10-10-10----------10-----------------9-9-9-9-9-9-9-9|
E|--------------------------------------------------------------------------------|
Comments