Muse - Overdue Chords & Tabs

 

Overdue Chords & Tabs

Muse Chords & Tabs

Version: 1 Type: Bass Tab

Overdue Bass Tab

   
#----------------------------------PLEASE NOTE---------------------------------#
#This file is the author's own work and represents their interpretation of the #
#song. You may only use this file for private study, scholarship, or research. #
#------------------------------------------------------------------------------#


Regular tuning: eadg

Song: Overdue
Artist: Muse
Album: Showbiz
Tabbed By: Stealthbass


\-slide down
r-ring until the s
s-stop ring


(Start 4.5 seconds in)

(Play three times)    (Play once)     (2 beat measure)
| |----------------| |----------------|--------|
|.|----------------|.|----------------|--------|
|.|5---5-5---5-5-5-|.|5---5-5---5-5-5r|-------s|
| |----------------| |----------------|--------|
   1 a 2 a 3 a 4 a    1 a 2 a 3 a 4 a  1 a 2 a


(Play 2 times)
|----------------|----------------|----------------|----------------|
|----------------|----------------|----------------|----------------|
|8-8---8-8-------|8-8---8-8-8-----|--7-7---7-7-7---|8-8---8-8-8-----|
|----------------|----------------|----------------|----------------|
 1 a 2 a 3 a 4 a  1 a 2 a 3 a 4 a  1 a 2 a 3 a 4 a  1 a 2 a 3 a 4 a


(12, 10, 9)
|----------------|
|----------------|
|121011--9r------|
|----------------|
 1 a 2 a 3 a 4 a


|----------------|----------------|
|----------------|----------------|
|s-8---8-8-8-----|--7---7-7-7-----|
|----------------|----------------|
 1 a 2 a 3 a 4 a  1 a 2 a 3 a 4 a


|----------------|----------------|
|----------------|----------------|
|8-8---8-8-8-----|121011--9-------|
|----------------|----------------|
 1 a 2 a 3 a 4 a  1 a 2 a 3 a 4 a


|----------------|----------------|
|----------------|----------------|
|8-8---8-8-8-----|--8---8-8-8-8---|
|----------------|----------------|
 1 a 2 a 3 a 4 a  1 a 2 a 3 a 4 a


|----------------|----------------|
|----------------|----------------|
|7-7-7-7-7-7-7-7-|7-7-7-7-7-7-7\2-|
|----------------|----------------|
 1 a 2 a 3 a 4 a  1 a 2 a 3 a 4 a

[ Tab from: http://www.guitartabs.cc/tabs/m/muse/overdue_btab.html ]
 (Play 3 times)    (Let 0 and 5 ring)
| |----------------| |----------------|
|.|----------------|.|----------------|
|.|2/-7--------5r--|.|2/-7--------5r--|
| |-----55-44------| |-----55-44------|
   1 a 2 a 3 a 4 a    1 a 2 a 3 a 4 a


(Play twice)
| |----------------| |----------------|   (1:12)
|.|----------------|.|----------------|
|.|8-8---8-8-------|.|8-8---8-8-8-----|
| |----------------| |----------------|
   1 a 2 a 3 a 4 a    1 a 2 a 3 a 4 a


|----------------|----------------|----------------|
|----------------|----------------|----------------|
|--7---7-7-7-----|8-8---8-8-8-----|121011--9r-----s|
|----------------|----------------|----------------|
 1 a 2 a 3 a 4 a  1 a 2 a 3 a 4 a  1 a 2 a 3 a 4 a


|----------------|----------------|
|----------------|----------------|
|8-8---8-8-------|--7---7-7-7-----|
|----------------|----------------|
 1 a 2 a 3 a 4 a  1 a 2 a 3 a 4 a


|----------------|----------------|
|----------------|----------------|
|8-8---8-8-8-----|121011--9r-----s|
|----------------|----------------|
 1 a 2 a 3 a 4 a  1 a 2 a 3 a 4 a


|----------------|----------------|
|----------------|----------------|    (1:39)
|8-8---8-8-8-----|--8---8-8-8-8---|
|----------------|----------------|
 1 a 2 a 3 a 4 a  1 a 2 a 3 a 4 a


|----------------|----------------|
|----------------|----------------|
|7-7-7-7-7-7-7-7-|7-7-7-7-7-7-7\2-|
|----------------|----------------|
 1 a 2 a 3 a 4 a  1 a 2 a 3 a 4 a


(Play 12 times)
| |----------------| |----------------|----------------|
|.|----------------|.|----------------|----------------|
|.|2/-7--------5r--|.|----------------|---------------s|
| |-----55-44------| |----------------|----------------|
   1 a 2 a 3 a 4 a    1 a 2 a 3 a 4 a  1 a 2 a 3 a 4 a




----------------------------------------------------------------------
The alternative intro that seems to sound better(or just as good) is->

(Play three times)    (Play once)     (2 beat measure)
| |----------------| |----------------|--------|
|.|----------------|.|----------------|--------|
|.|2/-7--------5r--|.|2/-7--------5r--|-------s|
| |-----55-44------| |-----55-44------|--------|
   1 a 2 a 3 a 4 a    1 a 2 a 3 a 4 a  1 a 2 a