Muse - New Born Chords & Tabs

 

New Born Chords & Tabs

Muse Chords & Tabs

Version: 9 Type: Tab 0 ratings
1 star 2 stars 3 stars 4 stars 5 stars
comments

New Born Tab

If you're too lazy, like me, to change your guitars tuning, then leave it in standard tuning and play this, it sounds virtually perfect!
This isn't the whole song though, starts with the piano part and then the riff everyone loves to play.

|-----7-------7-------7-------7-------7-------7-------7-----
|---8---8---8---8---7---7---7---7---8---8---8---8---7---7---
|-9-------9-------8-------8-------9-------9-------8-------8-
|-----------------------------------------------------------
|-----------------------------------------------------------
|-----------------------------------------------------------

|---7-------7-------7-------8-------8-------7-------7---
|-7---7---8---8---8---8---8---8---8---8---8---8---8---8-
|-------9-------9-------9-------9-------7-------7-------
|-------------------------------------------------------
|-------------------------------------------------------
|-------------------------------------------------------
[ Tab from: http://www.guitartabs.cc/tabs/m/muse/new_born_tab_ver_9.html ]
|-----7-------7----
|---7---7---7---7--
|-8-------8--------
|------------------      play this 3 times and on the last
|------------------      8, 7, 7, 7, just slow it down
|------------------

then into
|---------------------------------------------------------
|---------------------------------------------------------
|---------------------------------------------------------
|---------------------------------------------------------
|---------------------------------------------------------
|-0-0-0-0-3-0-3-4-5-5-5-5-8-5-8-9-10-10-10-10-10-10-10-10-

|---------------------------------------------------------
|---------------------------------------------------------
|---------------------------------------------------------
|---------------------------------------------------------
|---------------------------------------------------------
|-3-3-3-3-7-7-7-7-8-8-8-8-8-8-8-8-6-6-6-6-6-6-6-6-7-7-7-7-

|-------------------------
|-------------------------
|-------------------------
|-------------------------    then repeat that however many
|-------------------------    time you have to (think it's
|-7-7-7-7-7-7-7-7-7-7-7-7-    3 times, not sure though)
Comments