Muse - New Born Chords & Tabs

 

New Born Chords & Tabs

Muse Chords & Tabs

Version: 7 Type: Tab 1 rating
1 star 2 stars 3 stars 4 stars 5 stars
comments

New Born Tab

Muse-New Born (intro)
Tuning-Normal

e|---7-----------7-----------7-----------7-------------
b|-----8---8-------8---8------7---7-------7---7--------                
g|-------9------------9----------8------------8--------            x2
d|-----------------------------------------------------
a|-----------------------------------------------------
e|-----------------------------------------------------
[ Tab from: http://www.guitartabs.cc/tabs/m/muse/new_born_tab_ver_7.html ]
e|---7-----------7-----------8-----------8-------------
b|-----8---8-------8---8------8---8-------8---8--------
g|-------9------------9----------9------------9--------            x1 
d|-----------------------------------------------------
a|-----------------------------------------------------
e|----------------------------------------------------- 

e|---7-----------7-----------7-----------7-------------
b|-----8---8-------8---8------7---7-------7---7--------
g|-------7------------7----------8------------8--------            x1
d|-----------------------------------------------------
a|-----------------------------------------------------
e|----------------------------------------------------- 

Comments