Muse - New Born Chords & Tabs

 

New Born Chords & Tabs

Muse Chords & Tabs

Version: 5 Type: Tab 0 ratings
1 star 2 stars 3 stars 4 stars 5 stars
comments

New Born Tab

   
Muse - New Born
Tabbed By - Greg Harrison greg7485@hotmail.com
Standard tuning (e b g d a e)
Play all this twice before the singing comes in and then continue to 
play another four times while there is singing

-----7-------7-------7-------7-------7-------7-------7-------7-----------
---8---8---8---8---7---7---7---7---8---8---8---8---7---7---7---7---------
-9-------9-------8-------8-------9-------9-------8-------8---------------
-------------------------------------------------------------------------
-------------------------------------------------------------------------
-------------------------------------------------------------------------
									
-----7-------7-------8-------8-------7-------7-------7-------7-----------          
---8---8---8---8---8---8---8---8---8---8---8---8---7---7---7---7---------         
-9-------9-------9-------9-------7-------7-------8-------8---------------      
-------------------------------------------------------------------------  
-------------------------------------------------------------------------  
-------------------------------------------------------------------------   
								        
Then comes the heavy riff play this through 3 times.
-------------------------------------------------------------------------
-------------------------------------------------------------------------
-------------------------------------------------------------------------
-------------------------------------------------------------------------
-------------------------------------------------------------------------
--2-2-2-2-5-2-5-6-7-7-7-7-10-7-10-11-12-12-0-0-12-12-0-0-5-5-5-5-7-7-7-7-

----------------------------------------------------------------------
-------------------this is part of the heavy riff---------------------  
----5-5-5-5-5-5-5-5--3-3-3-3-3-3-3-3--4-4-4-4-4-4-4-4-4-4-4-4-4-4-4-4- 
----5-5-5-5-5-5-5-5--3-3-3-3-3-3-3-3--4-4-4-4-4-4-4-4-4-4-4-4-4-4-4-4-
----3-3-3-3-3-3-3-3--1-1-1-1-1-1-1-1--2-2-2-2-2-2-2-2-2-2-2-2-2-2-2-2-
----3-3-3-3-3-3-3-3--1-1-1-1-1-1-1-1--2-2-2-2-2-2-2-2-2-2-2-2-2-2-2-2-
[ Tab from: http://www.guitartabs.cc/tabs/m/muse/new_born_tab_ver_5.html ]
Now there is a bass interlude type thing.this is it tabbed on guitar.
--------------------------------------------------
--------------------------------------------------
--------------------------------------------------
---------------------------------------this carries on through the verse
--------0-2-----0-2-----0-2-----0-2---------------
----2-2-----2-2-----2-2-----2-2-------------------

then this is played very fast on the bottom 3 strings,(same as intro)
all this is played lots of times in the verse,listen to the track to
find out how many times to play it!
 
e---77777777-77777777-7777777-77777777-77777777-88888888-77777777----- 
b---88888888-77777777-8888888-77777777-88888888-88888888-88888888----- 
g---99999999-88888888-9999999-88888888-99999999-99999999-77777777----- 

e---77777777----------------------------
b---77777777----------------------------
g---88888888----------------------------

chorus - X2
------------------------------------------------------------
------------------------------------------------------------
----------------------777-7-7-------------------------------
----222-2-2--777-7-7--777-7-7--555-5-5----------------------
----222-2-2--777-7-7--555-5-5--555-5-5----------------------
----000-0-0--555-5-5--555-5-5--333-3-3----------------------
      Em       Am       Dm      Gm 
------------------------------------------------------------
------------------------------------------------------------
----5--------3--------4--------4----------------------------
----5--------3--------4--------4----------------------------
----3---X8---1---X8---2---X8---2---X8-----------------------
----3--------1--------2--------2----------------------------
      Cm       A#       Bm       Bm  

 Mute the strings a number of times
 (again listen to the track to work it out)
----XXXXXXXXXXXXXXXXXXXXXXXX----------------------------
----XXXXXXXXXXXXXXXXXXXXXXXX--------------------------
----XXXXXXXXXXXXXXXXXXXXXXXX----------------------------
----XXXXXXXXXXXXXXXXXXXXXXXX---------------------------
----XXXXXXXXXXXXXXXXXXXXXXXX--------------------------
----XXXXXXXXXXXXXXXXXXXXXXXX--------------------------

Solo - with loads of slides to make it sound right!!
E-|---------------------------------------------------------------------|
B-|--12-8-5-8-12-7-4-7-12-8-5-8-12-7-4-7-12-8-12-13-8-5-13-12-7-4----5--|
G-|---------------------------------------------------------------------|
D-|---------------------------------------------------------------------|
A-|---------------------------------------------------------------------|
D-|---------------------------------------------------------------------|

Thats pretty much the whole song.
once you get the hang of the main riff its easy!
any comments to greg_7485@hotmail.com
Comments