Muse - New Born Chords & Tabs

 

New Born Chords & Tabs

Muse Chords & Tabs

Version: 2 Type: Tab 3 ratings
1 star 2 stars 3 stars 4 stars 5 stars
comments

New Born Tab

   
#----------------------------------PLEASE NOTE---------------------------------#
#This file is the author's own work and represents their interpretation of the #
#song. You may only use this file for private study, scholarship, or research. #
#------------------------------------------------------------------------------##

                                    NEW BORN
                               As recorded by Muse
                         (Released as a Single in 2001)

Words by Matt Bellamy
Music by Muse
Transcribed by John Henson - john@theredqueen.net

          G/E                 B/D#                  C/E                  E5
      x x x 9 8 7          x x x 8 7 7          x x x 9 8 8          2 2 x x x x

          G5                   A5                   C5                   D5
      5 5 x x x x          7 7 x x x x         10 10 x x x x        12 12 x x x x

        D5open                 F#5                  B5                  C5III
      0 0 x x x x          4 4 x x x x          x 2 4 4 x x          x 3 5 5 x x

          A#5
      x 1 3 3 x x

  M.M. = 100
|-----7-----7---------7-----7------|
|---8-----8-----8---7-----7-----7--|
|-9-----9-----9---8-----8-----8----|
|----------------------------------|
|----------------------------------|
|----------------------------------|


|-----7-----7---------7-----7---------7-----7---------8-----8-----7-----7-----7---||
|---8-----8-----8---7-----7-----7---8-----8-----8---8-----8-----8-----8-----8-7--o||
|-9-----9-----9---8-----8-----8---9-----9-----9---9-----9-----9-----9-----9---8---||
|---------------------------------------------------------------------------------||
|--------------------------------------------------------------------------------o||
|---------------------------------------------------------------------------------||

[ Tab from: http://www.guitartabs.cc/tabs/m/muse/new_born_tab_ver_2.html ]
|-----------------------------------------------------------------|
|-----------------------------------------------------------------|
|------------------------------------------------------------4-4--|
|------------------------------------------------------------4-4--|
|-2-2-2-2-5-2-2-5-7-7-7-7-10-7--10-11-12-0-0-0-0-4-0-5-5-5-5-2-2--|
|-2-2-2-2-5-2-2-5-7-7-7-7-10-7--10-11-12-0-0-0-0-4-0-5-5-5-5------|


|----------------------------------------||
|---------------------------------------o||
|-5-5-5-5-3-3-3-3-4-4-4-4-4-4-4-4--------||
|-5-5-5-5-3-3-3-3-4-4-4-4-4-4-4-4--------||
|-3-3-3-3-1-1-1-1-2-2-2-2-2-2-2-2-------o||
|----------------------------------12\---||


|-------------------------------------|-----------------|------------------|
|-------------------------------------|-----------------|------------------|
|---------------------------------4-4-|-5-5-5-5-3-3-3-3-|-4-4-4-4-4-4-4-4--|
|---------------------------------4-4-|-5-5-5-5-3-3-3-3-|-4-4-4-4-4-4-4-4--|
|-2--2-2-7--7-7-7-0-0-0-4-5-5-5-5-2-2-|-3-3-3-3-1-1-1-1-|-2-2-2-2-2-2-2-2--|
|-2--2-2-7--7-7-7-0-0-0-4-5-5-5-5-----|-----------------|------------------|


|-------------------------------------------------------------------|
|-12-8-5-8-12-7-4-7-12-8-5-8-12-7-4-7-12-8-5-8-13-8-5-8-12-8-5-8-7--|
|-------------------------------------------------------------------|
|-------------------------------------------------------------------|
|-------------------------------------------------------------------|
|-------------------------------------------------------------------|


|-19-15-12-15-19-14-11-14-19-15-12-15-19-14-11-14-19-15-12-15-20-15-12-15-19-15-12-15-14--|
|-----------------------------------------------------------------------------------------|
|-----------------------------------------------------------------------------------------|
|-----------------------------------------------------------------------------------------|
|-----------------------------------------------------------------------------------------|
|-----------------------------------------------------------------------------------------|
Comments