Muse - New Born Chords & Tabs

 

New Born Chords & Tabs

Muse Chords & Tabs

Version: 17 Type: Tab 0 ratings
1 star 2 stars 3 stars 4 stars 5 stars
comments

New Born Tab

   
Artist: Muse.
Song: New Born.
Album: Origin Of Symmetry.
Reccomended Effect: Fuzz/Dirt ("Z-Vex Fuzz Factory" works best).
Tuning (From top E): E B G D A D (Drop D tuning).

Key:
/ \ = slide...
B   = bend...
x   = Don't play the string...  

Intro: Its loads easier if you use alternate picking.
E---------------------------------------------------------------------
B---------------------------------------------------------------------
G---------------------------------------------------------------------
D---------------------------------------------------------------------
A-----------------------------------5-2-2-5-2-2-5-6--6-6-6-6-9-9-9-0--
D-2-2-2-2-5-2-5-2--5-5-5-5-8-5-8-9------------------------------------

E---------------------------------------------------------------------
B---------------------------------------------------------------------
G---------------------------------------------------------------------
D---------------------------------------------------------------------
A-9-9-9-9-9-9-9-9--7-7-7-7-7-7-7-7--5-5-5-5-5-5-5-5--3-3-3-3-3-3-3-3--
D-9-9-9-9-9-9-9-9--7-7-7-7-7-7-7-7--5-5-5-5-5-5-5-5--3-3-3-3-3-3-3-3--

E---------------------------------------------------------------------
B---------------------------------------------------------------------
G---------------------------------------------------------------------
D---------------------------------------------------------------------
A-----------------------------------5-2-2-5-2-2-5-6--6-6-6-6-9-9-9-0--
D-2-2-2-2-5-2-5-2--5-5-5-5-8-5-8-9------------------------------------

  Em     C     G    B7
E--0--|--0--|--3--|--2--|
B--0--|--1--|--0--|--0--|
G--0--|--0--|--0--|--2--|
D--2--|--2--|--0--|--1--|
A--2--|--3--|--2--|--2--|
D--x--|--x--|--3--|--x--|

E---------------------------------------------------------------------
B---------------------------------------------------------------------
G---------------------------------------------------------------------
D---------------------------------------------------------------------
A-----------------------------------5-2-2-5-2-2-5-6--6-6-6-6-9-9-9-0--
D-2-2-2-2-5-2-5-2--5-5-5-5-8-5-8-9------------------------------------

  Em     C     G    B7
E--0--|--0--|--3--|--2--|
B--0--|--1--|--0--|--0--|
G--0--|--0--|--0--|--2--|
D--2--|--2--|--0--|--1--|
A--2--|--3--|--2--|--2--|
D--x--|--x--|--3--|--x--|

On this part you simply strike the bottom E/D string on the 2nd thret and quickly
slide down to the 14th thret then slide back up to the 2nd (as shown). You will
need to do this very quickly to get the effect.
E------------
B------------
G------------
D------------
A------------
D--2-/14\-2--

Verse: The verse is repeated a cuple of times.
E-7-7-7-7-|-7-7-7-7-|-7-7-7-7-|-7-7-7-7-|
B-8-8-8-8-|-7-7-7-7-|-8-8-8-8-|-7-7-7-7-|
G-9-9-9-9-|-8-8-8-8-|-9-9-9-9-|-8-8-8-8-|
D---------|---------|---------|---------|
A---------|---------|---------|---------|
D---------|---------|---------|---------|

E-7-7-7-7-|-8-8-8-8-|-7-7-7-7-|-7-7-7-7-|
B-8-8-8-8-|-8-8-8-8-|-8-8-8-8-|-7-7-7-7-|
G-9-9-9-9-|-9-9-9-9-|-7-7-7-7-|-8-8-8-8-|
D---------|---------|---------|---------|
A---------|---------|---------|---------|
D---------|---------|---------|---------|
[ Tab from: http://www.guitartabs.cc/tabs/m/muse/new_born_tab_ver_17.html ]
Chorus:
Em              Am        D
Destroy the spineless
 G    D        F
Tell me it's real
 C             F          B           Em
Wasting their last chance, to come away
                Am        D
Just break the silence
  G  D     F     C        F     B
Cause I'm drifting away, away from you

Solo: This solo is NOT acurate so please don't leave comments saying the solo is wrong:)
Solo intro:
E-3X-X-X-X-X-X-X-|5X-X-X-X-X-X-X-X-|7X-X-X-X-X-X-X-X-|12X-X-X-X-X-X-X-X
B-3X-X-X-X-X-X-X-|5X-X-X-X-X-X-X-X-|7X-X-X-X-X-X-X-X-|12X-X-X-X-X-X-X-Xe.t.C.
G-3X-X-X-X-X-X-X-|5X-X-X-X-X-X-X-X-|7X-X-X-X-X-X-X-X-|12X-X-X-X-X-X-X-X

Main solo:
E-------------------------------|------------------------------|
B-9-7-5-7-9-7-5-7--9-7-5-3-5-7--|-9-7-5-7-9-7-5-7--9-7-5-3-5-7-|
G-------------------------------|------------------------------|

E---------------|------------------------------|----------------|
B-4-5-6--7-8-9--|--9-7-5-7-9-7-5-7--9-7-5-3-5-7|-4-5-6--6-/12\b-|
G---------------|------------------------------|----------------|

Verse 2: Play this same tab again except this time play it at a low volume tone
through out the verse.Then near the end it starts to get loud again.
E-7-7-7-7-|-7-7-7-7-|-7-7-7-7-|-7-7-7-7-|
B-8-8-8-8-|-7-7-7-7-|-8-8-8-8-|-7-7-7-7-|
G-9-9-9-9-|-8-8-8-8-|-9-9-9-9-|-8-8-8-8-|
D---------|---------|---------|---------|
A---------|---------|---------|---------|
D---------|---------|---------|---------|

E-7-7-7-7-|-8-8-8-8-|-7-7-7-7-|-7-7-7-7-|
B-8-8-8-8-|-8-8-8-8-|-8-8-8-8-|-7-7-7-7-|
G-9-9-9-9-|-9-9-9-9-|-7-7-7-7-|-8-8-8-8-|
D---------|---------|---------|---------|
A---------|---------|---------|---------|
D---------|---------|---------|---------|

Chorus:
Em              Am        D
Destroy the spineless
 G    D        F
Tell me it's real
 C             F          B           Em
Wasting their last chance, to come away
                Am        D
Just break the silence
  G  D     F     C        F     B
Cause I'm drifting away, away from you

Play the whole intro again 2 times:
E---------------------------------------------------------------------
B---------------------------------------------------------------------
G---------------------------------------------------------------------
D---------------------------------------------------------------------
A-----------------------------------5-2-2-5-2-2-5-6--6-6-6-6-9-9-9-0--
D-2-2-2-2-5-2-5-2--5-5-5-5-8-5-8-9------------------------------------

  Em     C     G    B7
E--0--|--0--|--3--|--2--|
B--0--|--1--|--0--|--0--|
G--0--|--0--|--0--|--2--|
D--2--|--2--|--0--|--1--|
A--2--|--3--|--2--|--2--|
D--x--|--x--|--3--|--x--|

Now for the final part!
E---------------------------------------------------------------------
B---------------------------------------------------------------------
G---------------------------------------------------------------------
D---------------------------------------------------------------------
A-----------------------------------5-2-2-5-2-2-5-6--6-6-6-6-9-9-9-0--
D-2-2-2-2-5-2-5-2--5-5-5-5-8-5-8-9------------------------------------


  Em             C             G          B7            Em
E--0----------|--0----------|--3--3/9\-9|--2--2/12\-12|--0--|
B--0----------|--1--1/12\-12|--0--------|--0----------|--0--|
G--0--1/12\-12|--0----------|--0--------|--2----------|--0--|Let Ring!.....
D--2----------|--2----------|--0--------|--1----------|--2--|
A--2----------|--3----------|--2--------|--2----------|--2--|
D--x----------|--x----------|--3--------|--x----------|--x--|

Few! Its over:)
Comments