Muse - New Born Chords & Tabs

 

New Born Chords & Tabs

Muse Chords & Tabs

Version: 5 Type: Bass Tab 0 ratings
1 star 2 stars 3 stars 4 stars 5 stars
comments

New Born Bass Tab

   
The other tab was quite close, but he did miss a few parts in the verse,so I thought I 
post the correct(as near as I can tell) version. Go easy on me, this is my first tab. The 
guy got the chorus and the riff right, but missed some notes in the verse.

Main Riff-
G--9------------------|
D---7-9---------------|
A-7-------------------|
D------ (Play this 10-| times)

G--5-----5-----4-----4-----8------8----|
D---3-5---3-5---2-4---2-4---8-9----8-9-|
A-3-----3-----2-----2-----6------6-----|
D--------------------------------------|

The Bass drops out at one point and the guitar starts playing an awesome riff, Halfway 
the riff play this
[ Tab from: http://www.guitartabs.cc/tabs/m/muse/new_born_btab_ver_5.html ]
G--------------------------------|
D--------------------------------|
A-33333333111111112222222222222222
D---------------------------------

Then play riff with guitar-

G---------------------------------------------------------------------|
D---------------------------------------------------------------------|
A-------------------------------------------------------------2-2-2-2-|
D-2-2-2-2-5-2-5-6-7-7-7-7-10-7-10-11-12-0-0-12-0-0-3-4-5-5-5-5--------|

Then to Chorus

G---------------------------------------------------|
D---------------------------------------------------|
A----------0-0-0--3-5-5-5--------2--333-111-222-222-|
D-2-2-2--5----------------3-5-5-5-------------------|
Comments