Muse - New Born Chords & Tabs

 

New Born Chords & Tabs

Muse Chords & Tabs

Version: 3 Type: Bass Tab 0 ratings
1 star 2 stars 3 stars 4 stars 5 stars
comments

New Born Bass Tab

lee.stray@parkcommunity.hants.sch.uk
Drop d tuneing
read bass magizine and this is how new born is play'd it is quite easy
on the heavy riff you need to streach your third finger to reach the 5th fret

Intro/Verse (reapet till the build up)
G)--9----9----9----9----9----9----9----9----9---
D)---7-9--7-9--7-9--7-9--7-9--7-9--7-9--7-9--7-9
A)-7----7----7----7----7----7----7----7----7----
E)----------------------------------------------
[ Tab from: http://www.guitartabs.cc/tabs/m/muse/new_born_btab_ver_3.html ]
Heavy Riff x3
G)------------------------------------------------------------------------------
D)------------------------------------------------------------------------------
A)-------------0000-3-0-34-------------22222222-33333333-111111111-2222222222222
E)-2222-5-2-56-------------00003-0-34-------------------------------------------

Verse

Choris x2
G)---------------------------------------------------------------------------
D)---------------------------------------------------------------------------
A)---------000-33-555-------------22222222-33333333-11111111-2222222222222222
E)-222-555------------444-555-222--------------------------------------------

Verse 
Choris x2
Heavy riff x3

thats all their is to it i might have missed a bit in the intro/verse
but play it and you'll love it
Comments