Muse - New Born Chords & Tabs

 

New Born Chords & Tabs

Muse Chords & Tabs

Version: 2 Type: Bass Tab 0 ratings
1 star 2 stars 3 stars 4 stars 5 stars
comments

New Born Bass Tab

   
New born - muse

Main riff
G---9---
D----7-9
A-7-----  x10
E-------
       
G---5-------5-------4------4-------8-------8-----|
D-----3-5-----3-5-----2-4----2-4-----6-8-----6-8-|
A-3-------3-------2-------2------6-------6-------|
D------------------------------------------------|


Half way through guitar solo

G---------------------------------
D---------------------------------
A-33333333111111112222222222222222
D---------------------------------
[ Tab from: http://www.guitartabs.cc/tabs/m/muse/new_born_btab_ver_2.html ]
Solo (With guitar)
G----------------------------------------------------------------------|
D----------------------------------------------------------------------|
A--------------------------------------------------------------2-2-2-2-|
D-2-2-2-2-5-2-5-6-7-7-7-7-10-7-10-11-12-0-0-12-0-0-3-4-5-5-5-5---------|


G-----5-----5-----3---3-----4-----4------4----4|
D----------------------------------------------|
A-3333-33333-1111--1111--2222--2222--2222--2222-|
D----------------------------------------------|

CHORUS  x2
G------------------------------5----3-----4-----4--|
D--------------------------------------------------|
A-------000-3-555-------2-3333--1111--2222--2222---|
D-222-5-----------3-555----------------------------|

Its that, then back to the, change the timings to fit the song as you hear it.
Rate this please tab, not my crap sound advice below  

For the bass sound effect he uses a synthesiser,
or turn all the gain and treble down and add distortion if possible
Comments