Muse - Nature Chords & Tabs

 

Muse Chords & Tabs

Version: 1 Type: Tab 1 rating
1 star 2 stars 3 stars 4 stars 5 stars
comments

Nature Tab

song:nature_1
artist:muse
album:hullubaloo
tunnng:standard
george bush:idiot

the other guy who put nature_1 on here got it right but he didnt put the whole song

so here it is

intro/verse
-0---0--0---0-0-0-0---0--0---0-0------
-2---2--2---2-0-2-3---3--3---3-0------
-2---2--2---2-0-2-3---3--3---3-0------
--------------------------------------
--------------------------------------
--------------------------------------

about half way through the verse 
an electric guitar comes in
this is it:

--------------------------------------------play each
-2---3---6---7---9-6-3-2---3----------------note as
--------------------------------------------many times
--------------------------------------------as
--------------------------------------------posible
--------------------------------------------

chorus:

-------------------------------------------------------------------------------
-------------------------------------------------------------------------------
-2-2----2-2----2-2----2-2----2----2----3-3----3-3----3-3----3-3----3----3------
-0-0----0-0----0-0----0-0----0----0----0-0----0-0----0-0----0-0----0----0------
-0-0----0-0----0-0----0-0----0----0----x-x----x-x----x-x----x-x----x----x------
-2-2----2-2----2-2----2-2----2----2----3-3----3-3----3-3----3-3----3----3------


bridge(after chorus):
[ Tab from: http://www.guitartabs.cc/tabs/m/muse/nature_tab.html ]
-2---2---7---3---
-2---2---7---3---
-3---3---7---3---X4 4th time dont play Gm
-4---4---9---5---
-4---4---9---5---
-2---2---7---3---

then you repeat the whole 
song from the start 
including the intro

heavy part:

-------------------------------------
-------------------------------------
-------------------------------------
-------------------------------------
-0---0--3---0---3--------------------
-------------------3---3--6----3--6--

then you play:

-----------------------------------------------------------------------------------------
-----------------------------------------------------------------------------------------
-6-------7-------9------10------9------7------9------7------6------7------6------3-------
-6-X16---7-X16---9-X16--10-X8---9-X4---7-X4---9-X6---7-X6---6-X4---7-X6---6-X6---3-X4----
-4-------5-------7------8-------7------5------7------5------4------5------4------1-------
-----------------------------------------------------------------------------------------


OUTRO:

----------------------------0----0--
-2-2---2-2----2-2----2-2----2----2--
-2-2---2-2----2-2----2-2----3----3--
-2-2---2-2----2-2----2-2----2----2--
-0-0---0-0----0-0----0-0----0----0--
------------------------------------

THIS TAB WAS WORKED OUT 
COMPLETELY BY EAR SO I HOPE ITZ
OKAY IT TOOK ME AGES 
AND IM ONLY 12
Comments