Muse - Muscle Museum Chords & Tabs

 

Muscle Museum Chords & Tabs

Muse Chords & Tabs

Version: 9 Type: Tab 0 ratings
1 star 2 stars 3 stars 4 stars 5 stars
comments

Muscle Museum Tab

Artist-Muse
Track-Muscle Museum
Album-Showbiz
Any comments, questions or queries then mail me at ruled_by_secrecy_6@hotmail.com

Intro (Bass arr. for guitar)
e|-------------------------------|
B|-------------------------------|
G|-------------------------------|
D|-4---4---4---4---4---4---4---4-|
A|---4---4---4---4---4---4---4---|
E|-------------------------------|

Matt uses some sort of Mandolin type effect for this riff but I'm not sure which one though.
e|-------------------------------------------------|----------------------------------------------------|
B|-10-10-10-10-10-10-10-10/14-14-14-12-12-12-10-10-|-10-10-10-9\\7//9--9--9--9//12-12-12-10-10-10-9--9--|
G|-11-11-11-11-11-11-11-11/14-14-14-13-13-13-11-11-|-11-11-11-10\8/10--10-10-10/13-13-13-11-11-11-10-10-|
D|-------------------------------------------------|----------------------------------------------------|
A|-------------------------------------------------|----------------------------------------------------|
E|-------------------------------------------------|----------------------------------------------------|

e|------------------------------------------------|--------------------------------------------||
B|-9--9--9--7/9--10-10-10-10-14-14-14-14-14-14-14-|-15-15-15-15-15-15-15-15-15-----------------||
G|-10-10-10-8/10-11-11-11-11-14-14-14-15-15-15-15-|-16-16-16-16-16-16-16-16-16-----------------||
D|------------------------------------------------|--------------------------------------------||
A|------------------------------------------------|--------------------------------------------||
E|------------------------------------------------|--------------------------------------------||

Verse (Bass arr. for guitar)
e|-----------------|-----------------|-----------------|-----------------|
B|-----------------|-----------------|---------------2-|-3---------------|
G|-----------------|-----------------|-----------------|---4-------------|
D|-4---4---4---4---|-----------------|-4---4---4---4---|-----4-------2-3-|
A|---4---4---4---4-|-4---4---4---4---|---4---4---4-----|-------5-2-5-----|
E|-----------------|---4---4---4---4-|-----------------|-----------------|

e|-----------------|-----------------|-----------------|-----------------|
B|-----------------|-----------------|---------------2-|-3---------------|
G|-----------------|-----------------|-----------------|---4-------------|
D|-4---4---4---4---|-----------------|-4---4---4---4---|-----4-------2-3-|
A|---4---4---4---4-|-4---4---4---4---|---4---4---4-----|-------5-2-5-----|
E|-----------------|---4---4---4---4-|-----------------|-----------------|

Switch to guitar
e|---------------------------------|---------------------------------|
B|---------------------------------|---------------------------------|
G|-----2-2-----2-2-----2-2-----2-2-|-1-1-----1-1-----1-1-----1-1-----|
D|---------------------------------|-----3-3-----3-3-----3-3-----3-0-|
A|-4-4-----4-4-----4-4-----4-4-----|---------------------------------|
E|---------------------------------|---------------------------------|
PM _______________________________  ________________________________

e|---------------------------------|---------------------------------|
B|---------------------------------|---------------------------------|
G|-----2-2-----2-2-----2-2-----2-2-|-7-7-4-4-----4-4-7-7-4-4---------|
D|---------------------------------|---------4-4-------------4-4-4-0-|
A|-4-4-----4-4-----4-4-----4-4-----|---------------------------------|
E|---------------------------------|---------------------------------|
PM _______________________________   _______________________________

Too long, trying to resist it...
e|---------------------------------|---------------------------------|
B|---------------------------------|---------------------------------|
G|-----2-2-----2-2-----2-2-----2-2-|-1-1-----1-1-----1-1-----1-1-----|
D|---------------------------------|-----3-3-----3-3-----3-3-----3-3-|
A|-4-4-----4-4-----4-4-----4-4-----|---------------------------------|
E|---------------------------------|---------------------------------|
PM________________________________   _______________________________

e|---------------------------------|--------------------------------|
B|---------------------------------|-3------------------------------|
G|-----2-2-----2-2-----2-2-----2/////4------------------------------|
D|---------------------------------|-0------------------------------|
A|-4-4-----4-4-----4-4-----4-4-----|--------------------------------|
E|---------------------------------|--------------------------------|
[ Tab from: http://www.guitartabs.cc/tabs/m/muse/muscle_museum_tab_ver_9.html ]
e|-2-2-2---X----------X--------|---------X----------X-----------|
B|-2-2-2-----7----7-----7----7-|-----------6----6-----6----6----|
G|-2-2-2--------6---6------6---|-4-4-4--------6---6------6------|
D|-4-4-4-----------------------|-3-3-3------------------------0-|
A|-4-4-4-----------------------|-4-4-4--------------------------|
E|-2-2-2-----------------------|-4-4-4--------------------------|

e|---------------------------------|-----------------------------------------|
B|---------------------------------|-9-9-9-9-9-9-9-9-10-10-10-10-10-10-10-10-|
G|-7-7-7-7-7-7-7-7-7-7-7-7-7-7-7-7-|-7-7-7-7-7-7-7-7-7--7--7--7--7--7--7--7--|
D|-0-0-0-0-0-0-0-0-0-0-0-0-0-0-0-0-|-0-0-0-0-0-0-0-0-0--0--0--0--0--0--0--0--|
A|---------------------------------|-----------------------------------------|
E|---------------------------------|-----------------------------------------|
PM_______________________________(gradual release)_

Chorus
e|----2-------2-----|------------------|----2-------2-----|-----------------------|
B|------2-------2---|----6-------6-----|------2-------2---|-----3-------3-3h2-----|
G|--------2-------2-|------6-------6---|--------2-------2-|--------4----------4-2-|
D|----------4-------|--------6-------6-|----------4-------|----------4------------|x2
A|------------------|------------------|------------------|-2-2-------------------|
E|-2----------------|-4--------4-------|-2----------------|-----------------------|

                                       (Bass arr. for Guitar)
e|-----0-----------|-1-------1--------|-----------------|-----------------|
B|-----0-----0-----|---2---2---2------|-----------------|-----------------|
G|-------1-----1---|-----1--------1---|-4---4---4---4---|-4---4---4---4---|
D|---------------0-|----------------0-|---4---4---4---4-|---4---4---4---4-|
A|-----------------|------------------|-----------------|-----------------|
E|-0-0-----0-------|------------------|-----------------|-----------------|

Verse 2 Riff (a little riff interrupts the bass during the 2nd verse)
           1/2
e|------------|
B|---------2b-|
G|-----4------|
D|---3---3----|
A|-4----------|
E|------------|

Outro
e|---2-------2-----|---------2-------|---0-------0-----|-1-------1-------|
B|-----2-------2---|-----3-----3-----|-----0-------0---|---2---2---2-----|
G|-------2-------2-|---2---2-----2---|-------1-------1-|-----1-------1---|
D|-4-------2-------|-0-------------0-|-----------------|---------------0-|
A|-----------------|-----------------|-----------------|-----------------|
E|-----------------|-----------------|-0-------0-------|-----------------|

e|---2-------2-----|---------2-------|---------0-------|-----------------|
B|-----2-------2---|-----3-----3-----|-----2-----2-----|---6-----6-------|
G|-------2-------2-|---2---2-----2---|---2---2-----2---|-----6-----6---6-|
D|-4-------2-------|-0-------------0-|---------------0-|-------6-----6---|
A|-----------------|-----------------|-0---------------|-----------------|
E|-----------------|-----------------|-----------------|-4---------------|

e|-2---2-----------|-2--2-2-----------|-----------------------|----------------------|
B|-2---2-----------|-2--2-2-----------|-----------------------|----------------------|
G|-2---2-----------|-2--2-2-----------|-----------------------|----------------------|
D|-4---4----4--4-4-|-4--4-4-4-4-4-4-4-|-4-4-4--4--4-4-4-4-4-4-|-4-4-4--4-4-4-4-4-4-4-|
A|-4---4----2--0-X-|-4--4-4-2-2-2-0-X-|-X-X-X--X--0-2-2-2-0-X-|-X-X-X--X-0-2-2-2-0-X-|
E|-2---2---------4-|-2--2-2---------4-|-2-2-2--4------------4-|-2-2-2--4-----------4-|

Piano part at the end (Piano arr. for guitar)
e|-------------------------------------------------|-------------------------------------------------|
B|-10-10-10-10-10-10-10-10-14-14-14-12-12-12-10-10-|-10-10-10-10-9--9--9--9--12-12-12-10-10-10-9--9--|
G|-11-11-11-11-11-11-11-11-14-14-14-13-13-13-11-11-|-11-11-11-11-10-10-10-10-13-13-13-11-11-11-10-10-|
D|-------------------------------------------------|-------------------------------------------------|
A|-------------------------------------------------|-------------------------------------------------|
E|-------------------------------------------------|-------------------------------------------------|

e|-------------------------------------------------|--------------------------------------------|----14--|
B|-9--9--9--9--10-10-10-10-14-14-14-14-14-14-14-14-|-15-15-15-15-15-15-15-15-15-15-15-15-15--15-|---14---|
G|-10-10-10-10-11-11-11-11-14-14-14-15-15-15-15-15-|-16-16-16-16-16-16-16-16-16-16-16-16-16--16-|--14----|
D|-------------------------------------------------|--------------------------------------------|-16-----|
A|-------------------------------------------------|--------------------------------------------|--------|
E|-------------------------------------------------|--------------------------------------------|--------|
Comments