Muse - Muscle Museum Chords & Tabs

 

Muscle Museum Chords & Tabs

Muse Chords & Tabs

Version: 8 Type: Tab 0 ratings
1 star 2 stars 3 stars 4 stars 5 stars
comments

Muscle Museum Tab

   
Muse - Muscle Museum
By kiwi 
Intro: 
          (F#m)                        (C#)
e-----------------------------------------------
b--10-10-10-10-10--14-14-14-12-10-10\-9---9--9--
g--11-11-11-11-11--14-14-14-13-11-11\10-10-10---
d-----------------------------------------------
a-----------------------------------------------
e-----------------------------------------------

          (F#m)                        (Bm)
e-----------------------------------------------
b--12-12-10--9--9/10----14-14-14-14-14-15-15-15-
g--13-13-11-10-10/11---14-14-14-15-15-16-16-16--
d-----------------------------------------------
a-----------------------------------------------
e-----------------------------------------------

Verse

Pre-Chorus 
[ Tab from: http://www.guitartabs.cc/tabs/m/muse/muscle_museum_tab_ver_8.html ]
e--2------2---2--5-2-----------------4-------1---1--4-1----------------------
b--2-------2-2-2----2----------------6--------2-2-2----2---------------------
g--2---------------------------------6---------------------------------------
d--4---------------------------------6---------------------------------------
a--4---------------------------------4----------------------------12-12-12-12 
e--2---------------------------------4----------------------------10-10-10-10  
    
Chorus:

F#m C# F#m Bm x2

E C#

outro:

F#m E D C#7
F#m E D A C#7
prt2
F#m Bm F#m Bm
F#m Bm F#m Bm
F#m
Comments