Muse - Microcuts Chords & Tabs

 

Microcuts Chords & Tabs

Muse Chords & Tabs

Version: 1 Type: Bass Tab 0 ratings
1 star 2 stars 3 stars 4 stars 5 stars
comments

Microcuts Bass Tab

Muse
"Microcuts"
Origin of Symmetry


Intro/Verse
G-|------------------------------|---------------------------------|
D-|------------------------------|---------------------------------|
A-|------------------------------|---------------------------------|
E-|---5-5----5-5----5-5----5-5---|--5-5----7-7----8-8--9-9--10-10--|
[ Tab from: http://www.guitartabs.cc/tabs/m/muse/microcuts_btab.html ]
G-|------------------------------|---------------------------------|
D-|------------------------------|---------------------------------|
A-|------------------------------|---------------------------------|
E-|---9-10------5-5--------4-4---|------5-5-------5-5--5-5--5-5----|


Chorus
G-|--------------------------|-------------------------|
D-|--5-5-5-5-5-5-------------|-5-5-5-5-5-5-5-5-5-5-5-5-|
A-|--------------5-5-5-5-5-5-|-------------------------| (3x)
E-|--------------------------|-------------------------|

G-|--------------------------|-------------------------|
D-|--5-5-5-5-5-5-------------|-5-5-5-5-5-5-6-6-6-7-7-7-|
A-|--------------5-5-5-5-5-5-|-------------------------| (1x)
E-|--------------------------|-------------------------|
Comments