Muse - Map Of Your Head Chords & Tabs

 

Map Of Your Head Chords & Tabs

Muse Chords & Tabs

Version: 3 Type: Tab 0 ratings
1 star 2 stars 3 stars 4 stars 5 stars
comments

Map Of Your Head Tab

   
******************************************************************
MUSE
MAP OF YOUR HEAD
Tabbed by Myke, A_Violet_Fluid@hotmail.com.

Standard Tuning

This is such a cool song and you can find it
On the New Born single's 2nd CD along with a
Live version of Plug-In Baby (also cool).
I knew no one would tab a measly B-side so i
Went ahead and did it for those of you who
Appreciate the non-album Muse songs. Bye!

Intro:



Verse/Chorus:

  [A]                 [D][Dm][D]
|--------0-------------2--1---2--|
|-------2---2----------3--3---3--|
|------2------2--------2--2---2--|
|-----2---------2-0-0------------|
|--0-----------------------------|
|--------------------------------| (x2)
[ Tab from: http://www.guitartabs.cc/tabs/m/muse/map_of_your_head_tab_ver_3.html ]
  [A]                [E]                [Fm?]               [D][Dm][D]
|------0--0-0---------------0-0--------------2-2-2-------2---2--1---2-|
|-----2-------2-----------0-----0-----------2-----2------2---3--3---3-|
|----2----------2--------1--------1--------2-------2-----2---2--2---2-|
|---2-------------2-0---2-----------2-----4---------4----4------------|
|--0-------------------2-----------------4---------------4------------|
|---------------------0-----------------------------------------------| (x1)

It's pretty much just messing around with the chords,
I simply did the way i sometimes play it but it really
Is best to just improvise and have some fun.
:)
And thanks to RockDoggII@aol.com for that [?] chord
Which sounds so much better than the one i used to use.

Comments