Muse - Invincible Chords & Tabs

 

Invincible Chords & Tabs

Muse Chords & Tabs

Version: 1 Type: Bass Tab 0 ratings
1 star 2 stars 3 stars 4 stars 5 stars
comments

Invincible Bass Tab

Muse – Invincible

Ok, this song is going to be on the new album.  I have sources which say it is
going to be called Invincible.  It's a LEGENDARY song, especially the solo.  
And here is how to play it.

As much as I believe in spreading the word of Muse, and how to play their songs, 
please don’t just steal this, and pass it off as your own on other tab sites.  
Credit Mr Steven Garner, as this is my tab, as much as the song is Muse’s.


Intro (pre vocal)
G-------
D-------
A-------
C---0---


VERSES
G----------------------------------------------------------------------------------------------------
D--------------3--------------------------------------------6--7-------5---3-------------------------
A---3-----------------------5--------------------7—--------------------------------------------------
C--------------------------------------7------------------------------------------7----------0-------
  ^^^ First half of verse one - lack of transfers to other notes.


G---------------------------------------------------------------------------------------------------------
D--------------------------------------------------------------------6--7---------------------------------
A--3---------5---7---8---------------7---5-----8-10----------8--7-------------10---8---------7------------
C-----------------------------------------------------------------------------------------------7-------0-
   ^^^ Second time round, this is played instead.


[ Tab from: http://www.guitartabs.cc/tabs/m/muse/invincible_btab.html ]
CHORUS’
G------------------------------------------------------------------------------------------------------------
D-------------------------------------------------------------------------------------------------------7----
A--------------------------------3-----------------5---------------------------------------7-----------------
C--5----------7--------------------------5------------------------------7------------------------------------
  During the struggle, they will pull us down, but please, please let’s use this chance to turn things around


G----------------------------------------------------------
D----------------------------------------------------------
A----------------------------------------------------------
C--5------------------------7---------------------0--------
  And tonight, we can truly say, together we’re invincible

Back to the intro (open C)

Second verse = Same as the Second Time Round of the first verse bit, but, staccato.  One note per beat.  Same changes at the same times.
Second Chorus = Same again, but instead of ending on the last C, go to this…


INTERLUDE BIT

G---------------------------------------------------------------------------
D---------------------------------------------------------------------------
A---------------------------------------------------------------------------
C----4-0-0-12-0-0-10-0-0-8-0-0-7-0-10-0-8-0-0-7-0-0-5-0-0-8-0-7-0-0-5-0-0---


Basically, hit the low C in between tapping these notes in the right places. When the drums come in, it’s not hard to get the pattern. 

C---4----12----10----8----7--10—-8--7--5---8-7-5-

Remember to go back to the 4 (E) again quickly enough.

On the fourth time of playing this, however, instead of the last 3 notes, just stay on the F (C---5---).




Then go to the second VERSE riff under the solo, then a CHORUS

End on C, ala:
G-------------------------------------------
D-------------------------------------------
A-------------------------------------------
C---0-0-0-0---0-0-0-0---0-0-0-0---0-0-0-0 X2

Any comments, or suggestions for the interlude bit, or any of it: gerner33@hotmail.com
Comments