Muse - Instant Messanger Chords & Tabs

 

Instant Messanger Chords & Tabs

Muse Chords & Tabs

Version: 1 Type: Tab 0 ratings
1 star 2 stars 3 stars 4 stars 5 stars
comments

Instant Messanger Tab

Ok...well seeing as this song was originally called Instant messenger but was later
re-named as pink ego box I decided to the exactly same tab for both songs but this way
everyone can find as not everyone will call it the same name so u no...this way everyone
wins!!
If you have any probs Ive changed my e-mail from rhcp_3454@hotmail.com
to in_your_world@hotmail.co.uk

hope u like

Tuning:Standard

Intro:
----------------------------------------------------------------R
----------------------------------------------------------------E
--6---6---6---6---6---6---6---6---6---6---6---6---6---6---6---6-P
-8---8---8---8---8---8---8---8---7---7---7---7---7---7---7---7--E X2
----------------------------------------------------------------A
----------------------------------------------------------------T

---------------------------------------------------|
---------------------------------------------------|
--6---6---6---6---6---6---6---6---6---6---6---6----|
-8---8---8---8---8---8---8---8---7---7---7---7---7-|
---------------------------------------------------|
---------------------------------------------------|

Verse1:(light palm mute)
-----------------R
-----------------E
-6-6-------------P
-8-8---8--8--8---E x5
-----------------A
-----------------T

-----------------------| 
-----------------------|
-6-6-6-6-6-6-6-6--5-5--|
-7-7-7-7-7-7-7-7--7-7--| 
-----------------------| 
-----------------------|
LYRICS:
It's gonna be ok
Can't afford another day
At 50 bytes per second
I've never seen your face
I've never heard your voice

Pre chorus:
-------------------------| 
-------------------------|
-5-5-5-5-5-5-5-5-0-0-0-0-|
-7-7-7-7-7-7-7-7-0-0-0-0-| 
-------------------------| 
-------------------------|
But I think I like it
[ Tab from: http://www.guitartabs.cc/tabs/m/muse/instant_messanger_tab.html ]
Chorus:
--2-2--2-2--2-2--2-2-2--------3----3-----------|
--3-3--3-3--3-3--3-3-3----------3--3-----------|
--3-3--3-3--3-3--3-3-3-------------3-----------|
----------------------------5------5-----------|
--------------------------5--------5-----------|
-----------------------------------3-----------|
When you instant message me
With a promise
I can feel it
I can tell you're gonna be
Just like me

Verse2:
palm muted
-----------------------R
-----------------------E
-6-6-6-6-6-6-6-6-6-6-6-P  however many
-8-8-8-8-8-8-8-8-8-8-8-E times requires
-----------------------A
-----------------------T
My eyes are gonna strain
My heart is feeling pain
At 50 beats per second

Pre chorus:
-------------------------| 
-------------------------|
-5-5-5-5-5-5-5-5-0-0-0-0-|
-7-7-7-7-7-7-7-7-0-0-0-0-| 
-------------------------| 
-------------------------|
But I think I like it

Chorus:
Chorus:
--2-2--2-2--2-2--2-2-2--------3----3-----------|
--3-3--3-3--3-3--3-3-3----------3--3-----------|
--3-3--3-3--3-3--3-3-3-------------3-----------|
----------------------------5------5-----------|
--------------------------5--------5-----------|
-----------------------------------3-----------|
When you instant message me
With a promise
I can feel it
I can tell you're gonna be
Just like me

Outro:
Guitar (Trem Picking):
-------------------------------------------|                           
-------------------------------------------|                           
-------------------------------------------|    
--10-10-10-10-9-9-9-9-7-7-7-7-9-9-9-9------|                           
-------------------------------------------|                           
-------------------------------------------|   

--------------R                           
--19-19-19-19-E                           
--------------P However mnay times
--------------E required           
--------------A              
--------------T

End on:
-----|                           
-19~-|                           
-----|
-----|                           
-----|                           
-----|
You tell
you tell
you turn on me

bibi xxxxxxxxxxxxxxxxxxxxx
Comments