Muse - In Your World Chords & Tabs

 

In Your World Chords & Tabs

Muse Chords & Tabs

Version: 9 Type: Tab 0 ratings
1 star 2 stars 3 stars 4 stars 5 stars
comments

In Your World Tab

Submitted by Darren Kerr

Type 1: Normal tuning


e---------------------------|
B---------------------------|
G---------------------------| X 3
D---------------------------|
A---------------------------|
E--5--10--8--7--5--4--5--7--|


e----------------------------------------|
B----------------------------------------|
G----------------------------------------| 
D----------------------------------------|  This version is in the [low]
A----------------------------------------|  octave, but in my opinion sounds
E--5--4--5--7--8--10--8--7--5-(let ring)-|  like the same one in the song.



Bridge:

e------------------|
B------------------|
G--5--7--9--10--9--|
D--5--7--9--10--9--|
A--3--5--7---8--7--|
E------------------|


Chorus :
[ Tab from: http://www.guitartabs.cc/tabs/m/muse/in_your_world_tab_ver_9.html ]
e---------------------|---------------------|------------------|------------------|
B---------------------|---------------------|------------------|------------------|
G---------------------|---------------------|------------------|------------------|Play chorus 3 times
D-10--10--10--x--8--8-|-10--10--10--x--9--9-|-9--9--9--x--9--9-|-9--9--9--x--8--8-|
A-10--10--10--x--8--8-|-10--10--10--x--9--9-|-9--9--9--x--9--9-|-9--9--9--x--8--8-|
E--8---8---8--x--8--8-|--8---8---8--x--9--9-|-7--7--7--x--9--9-|-7--7--7--x--8--8-|


Outro                                 

e|--------------------------|----------------------------------|
B|--------------------------|----------------------------------|
G|--------------------------|----------------------------------|
D|--------------------------|----------------------------------|
A|--------------------------|----------------------------------|
E|-5--4--5--7--8--7--8--10--|--12--10--12--13--12--13--12--13--|

e|------------------------------|------------------------------|
B|------------------------------|------------------------------|
G|------------------------------|------------------------------|
D|------------------------------|------------------------------|
A|------------------------------|------------------------------|
E|--15--13--12--12--10--12--10--|--8--10--8--7--8--10--8--7--5-|




lyrics

In Your World 

I'm hurting you again 
To lonely to pretend 
Like everything is new 
I promise you to 
Blow it all away

In your world 
No one is crying alone 
In your world 
No one is dying alone

To broken to be loved 
too weak to sing along 
I'll comfort you my friend 
Helping you to 
Blow it all away

In your world 
No one is crying alone 
In your world 
No one is dying alone
Comments