Muse - In Your World Chords & Tabs

 

In Your World Chords & Tabs

Muse Chords & Tabs

Version: 3 Type: Bass Tab 0 ratings
1 star 2 stars 3 stars 4 stars 5 stars
comments

In Your World Bass Tab

----------------------------------------------------------------------
			     IN YOUR WORLD - Muse
---------------------------------------------------------------------

By: Basscook

Bass comes in after Guitar intro.

Verse X4:
G|----------------------10---10------------------------------9---9---------|
D|--------------------------------9-10-0-0-12-0-12-0-5-7-------------------|
A|-0-0-12-0-12-0-5-7-8-8---8----8------------------------7-7---7---7--9-10-|
E|-------------------------------------------------------------------------|
[ Tab from: http://www.guitartabs.cc/tabs/m/muse/in_your_world_btab_ver_3.html ]
Pre-Chorus X1:
G|----------------------------------2-------2-------1------------|
D|----------0-0-0-0-2-2-2-2-3-3-3-3---3-2-3---3-2-3---3-2-3------|
A|--3-3-3-3--------------------------------------------------8-8-|
E|---------------------------------------------------------------|

Chorus X6:
G|-----------------------------------|
D|------8-8-----7-7-----7-7-----8-8--|
A|--8-8-----8-8-----5-5-----5-5------|
E|-----------------------------------|

Verse X4

Pre-Chorus X1

Chorus X6

Verse (I think) X4 (Under the guitar outro)

----------------------------------------------------------------------
Comments