Muse - In Your World Chords & Tabs

 

In Your World Chords & Tabs

Muse Chords & Tabs

Version: 2 Type: Bass Tab 0 ratings
1 star 2 stars 3 stars 4 stars 5 stars
comments

In Your World Bass Tab

CHORUS (3x)
---------------|---------------|---------------|---------------|
----------3-3-3|----------2-2-2|----------2-2-2|----------2-2-2|
3---3-3-3------|3---3-3-3------|0---0-0-0------|0---0-0-0------|
---------------|---------------|---------------|---------------|
[ Tab from: http://www.guitartabs.cc/tabs/m/muse/in_your_world_btab_ver_2.html ]
VERSE/SOLO (3x)
---------------|----10---------|---------------|----9----------|
---------------|------------9-100-0-120-0-0-7-9|------------9-10
0-0-120-0-0-5-7|8-8---8-8-8----|---------------|7-7---7-7-7----|
---------------|---------------|---------------|---------------|

PRE-CHORUS
---------------|---------------|---------------|---------------|
---------------|---------------|---------------|----------3-3-3|
0-0-0-0-2-2-2-2|3-3-3-3-8-8-8-8|7-7-7-7-7-7-7-7|7-7-7-7-7------|
---------------|---------------|---------------|---------------|

CHORUS (3x)
VERSE/SOLO (3x)
PRE-CHORUS
CHORUS (3x)
VERSE/SOLO (2x)

END:
---------------|
---------------|
0-~-~-~-~-~-~-~|
---------------|
Comments