Muse - Hysteria Chords & Tabs

 

Hysteria Chords & Tabs

Muse Chords & Tabs

Version: 4 Type: Tab 6 ratings
1 star 2 stars 3 stars 4 stars 5 stars
comments

Hysteria Tab

MUSE - Hysteria

/ = slide up
b = bend up
r = release back
h = hammer on
p = pull off
~ = let ring

amazing song that once you know you'll never forget

==============================================================================

INTRO
Bass riff arranged for guitar

|-------------------------------------|-------------------------------------------|
|-------------------------------------|-------------------------------------------|
|-------------------------------------|-------------------------------------------|
|-------------------------------------|-------------------------------------------|
|-0-0-10-0-10-12-0-10-0-7-0-8-8-7-5-7-|-------------------------------------------|
|-------------------------------------|-0-0-10-0-10-12-0-15-0-12-0-15-15-12-15-17-|

|----------------------------------------|-----------------------------------|
|----------------------------------------|-----------------------------------|
|----------------------------------------|-----------------------------------|
|-0-0-10-0-10-12-0-10-0-10-9-0-9-8-0-8-7-|-----------------------------------|
|----------------------------------------|-0-10-0-10-12-0-10-0-7-0-8-8-7-5-7-|
|----------------------------------------|-----------------------------------|

continues on bass

|------------|-----------|-----------|---------------|
|------------|-----------|-----------|---------------|
|------------|-----------|-----------|---------------|
|------------|-----------|-----------|---------------|
|------------|-----------|-----------|---------------|
|-6~---------|-7~--------|-8~--------|-10~-------/22-|

===================================================================================

BRIDGE

|--------------------------------|--------------------------------|
|--------------------12b13r12-10-|--------------------12b13r12-10-|
|-14-14-14-14-14-14--------------|-13-13-13-13-13-13--------------|
|--------------------------------|--------------------------------|
|-12-12-12-12-12-12--------------|-11-11-11-11-11-11--------------|
|--------------------------------|--------------------------------|

|--------------------------------|-------------------------|
|--------------------12b13r12-10-|--------------12b-12b-12-|
|-10-10-10-10-10-10--------------|-9-9-9-9-9-9-------------|
|--------------------------------|-------------------------|
|-8--8--8--8--8--8---------------|-7-7-7-7-7-7-------------|
|--------------------------------|-------------------------|

=================================================================================

VERSE
same as the bass riff in the intro

================================================================================

CHORUS
just powerchords

|----------------------|------------------------|
|----------------------|------------------------|
|-5-5-5-5-5------------|-7-7-7-7-7--------------|
|-5-5-5-5-5--5-5-5-5-5-|-7-7-7-7-7--7-7-7-7-6-7-|
|-3-3-3-3-3--5-5-5-5-5-|-5-5-5-5-5--7-7-7-7-6-7-|
|------------3-3-3-3-3-|------------5-5-5-5-4-5-|

at the end of the chorus he plays this 

|-------------------------------------------|
|-------------------------------------------|
|-------------------------------------------|
|-------------------------------------------|
|-------------------------------------------|
|-0-0-10-0-10-12-0-15-0-12-0-15-15-12-15-17-|

==============================================================================

BRIDGE
same as before

==============================================================================

VERSE
same as before - just the intro bass riff

=============================================================================

CHORUS
same as before

============================================================================

2nd BRIDGE

this is the bit before the solo part - its just a variation on the intro
[ Tab from: http://www.guitartabs.cc/tabs/m/muse/hysteria_tab_ver_4.html ]
|----------------------------------------|-----------------------------------------|
|----------------------------------------|-----------------------------------------|
|----------------x3----------------------|-----------------------------------------|
|----------------------------------------|-----------------------------------------|
|----------------------------------------|-----------------------------------------|
|-0-0-10-0-10-12-0-10-0-10-9-0-9-8-0-8-7-|-0-10-0-10-12-0-15-0-12-0-15-15-12-15-17-|

==================================================================================

SOLO PART 1 

|-------12-12-------13-13-------13-13-12-12----12-|-------12-12-------13-13-------
|-------------------------------------------------|-------------------------------
|-14-14-------14-14-------14-14-------------14----|-13-13-------13-13-------13-13-
|-------------------------------------------------|-------------------------------
|-------------------------------------------------|-------------------------------
|-------------------------------------------------|-------------------------------

-13-13-12-12----12-|-------13-13-------17-17-------13-13-------12-12-|-------12-12-
-------------------|-------------------------------------------------|-------------
-------------13----|-14-14-------14-14-------14-14-------14-14-------|-14-14-------
-------------------|-------------------------------------------------|-------------
-------------------|-------------------------------------------------|-------------
-------------------|-------------------------------------------------|-------------

-------13-13-------13-13-12-12----12-|-------12-12-------13-13-------13-13-12-12-
-------------------------------------|-------------------------------------------
-14-14-------14-14-------------14----|-14-14-------14-14-------14-14-------------
-------------------------------------|-------------------------------------------
-------------------------------------|-------------------------------------------
-------------------------------------|-------------------------------------------

----12-|-------12-12-------13-13-------13-13-12-12----12-|-------13-13-------17-17-
-------|-------------------------------------------------|-------------------------
-14----|-13-13-------13-13-------13-13-------------13----|-14-14-------14-14-------
-------|-------------------------------------------------|-------------------------
-------|-------------------------------------------------|-------------------------
-------|-------------------------------------------------|-------------------------

-------13-13-------12-0-|-12----------------------------------------------|
------------------------|-------------15----------13----------12----------|
-14-14-------14-14------|----14-14-14-------------------------------------|
------------------------|----------------15-15-15----14-14-14----12-12-12-|
------------------------|-------------------------------------------------|
------------------------|-------------------------------------------------|

====================================================================================

SOLO PART 2

|------------------------------|----------------------------------|-----------------------|
|-13--------13-12-----12-------|-12-12-13---15--------15-13-12h13-|-13--------15-13-12h13-|
|----12-----------14-----12----|---------------14-----------------|----14-----------------|
|-------14------------------12-|------------------15--------------|-------14--------------|
|------------------------------|----------------------------------|-----------------------|
|------------------------------|----------------------------------|-----------------------|

|-----------------------------------|-----------------------------------|
|-13--------12b13r12-10h12-12-------|-12-13b14-----15-13-12h13-13-------|
|----12-----------------------12----|-----------------------------14----|
|-------14-----------------------12-|----------14--------------------14-|
|-----------------------------------|-----------------------------------|
|-----------------------------------|-----------------------------------|

====================================================================================

CHORUS
same as before

=====================================================================================

OUTRO
same as the 2nd bridge

=====================================================================================

i pretty sure thats right any problems email me at samjerromes@hotmail.com
Comments