Muse - Hysteria Chords & Tabs

 

Hysteria Chords & Tabs

Muse Chords & Tabs

Version: 2 Type: Bass Tab 2 ratings
1 star 2 stars 3 stars 4 stars 5 stars
comments

Hysteria Bass Tab

Muse 
Hysteria

Verse/Main Riff
G|--------------------------------------------------------------------------------------
D|--------------------------------------------------------------------------------------
A|-0-0-10-0-10-12-0-10-7-8-7-5-7-5----------------------10-----10--10-----10-
E|-------------------------------------------0-0-10-0-10--12-----12---------12-----

G|-------------------------------------------------------------------------------------|
D|--------0-0-10-0-10-12-0-10-10-9-9-8-----------------------------------------|
A|10-12---------------------------------------0-0-10-0-10-12-0-10-7-8-7-5-7--|
E|--------------------------------------------------------------------------------------|
[ Tab from: http://www.guitartabs.cc/tabs/m/muse/hysteria_btab_ver_2.html ]
Chorus
G|----3-3-5----3-3-5----------------------------5-5-7-----5-5-7----------------------
D|-----------------------3-3-5-------3-3-5----------------------------5-5-7----5-5-7-
A|-3---------3---------------------------------5----------5------------------------------
E|-------------------3---------3----------------------------------5---------5---------

G|----3-3-5----3-3-5----------------------------5-5-7-----5-5-7--------------------
D|-----------------------3-3-5-------3-3-5--------------------------------------------
A|-3---------3---------------------------------5----------5----------------------------
E|--------------------3--------3----------------------------------0-0-10-0-10-12-

G|-------------------------------|
D|-------------------------------|
A|10------10-10-----10-12---|
E|-----12---------12------------|

Outro
G|-----------------------------------------|
D|-0-0-10-0-10-12-0-10-10-9-9-8---|
A|-----------------------------------------|
E|-----------------------------------------|
Comments