Muse - Hyperchrondriac Music Chords & Tabs

 

Hyperchrondriac Music Chords & Tabs

Muse Chords & Tabs

Version: 1 Type: Tab 0 ratings
1 star 2 stars 3 stars 4 stars 5 stars
comments

Hyperchrondriac Music Tab

   
i know that somebody has put hyper chrondriac music on here but i have worked out the
piano at the start just incase you want to know how to play it. also the other person who 
put hyper chrondriac music on this site tabbed it upsidedown

here are the chords

gtr 1. acous.

Gm               Dm              C

-3-3-3-3-3-3-3-0-1-1-1-1-1-0-0-0-0-0-0-0-0-0-0-0-0-0-0-0-0-0-0-0------
-3-3-3-3-3-3-3-0-3-3-3-3-3-3-3-3-1-1-1-1-1-1-1-1-1-1-1-1-1-1-1-1------
-3-3-3-3-3-3-3-0-2-2-2-2-2-2-2-2-0-0-0-0-0-0-0-0-0-0-0-0-0-0-0-0------  repeat for 
-5-5-5-5-5-5-5-0-0-0-0-0-0-0-0-0-2-2-2-2-2-2-2-2-2-2-2-2-2-2-2-2------  the whole 
-5-5-5-5-5-5-5-------------------3-3-3-3-3-3-3-3-3-3-3-3-3-3-3-3------  song.
-3-3-3-3-3-3-3--------------------------------------------------------

here is the piano part

[ Tab from: http://www.guitartabs.cc/tabs/m/muse/hyperchrondriac_music_tab.html ]
--------------------0---------------------------------------------------
-------3--------------3------------------5----3---------------------3---  you'll have to 
-----3------------------2-----------------------5-3-2-----------3-5-----  work out the rhythm
---5----------------------3----------------------------5----------------  yourself coz its hard
-5----------------0--------------------3--------------------------------  to write.
------------------------------------------------------------------------

gtr 2.

drop D tunning

Gm               Dm                 C
-----------------------------------------------------------------------
-----------------------------------------------------------------------
-----------------------------------------------------------------------
------------------------------------5-----------------------------------
-5----------------0-----------------3-------------------------------------
-5----------------0------------------------------------------------------

i have put the acoustic guitr chords obove it so you know when to play 
the gtr. 2 power chords.

you only play the C power chord once


here is the gtr. 3 solo

-----------------------------------------------------
-----------------------------------------------------
-----------------------------------------------------
--4-5-------5-4-3---------1-0------------------------
-------------------------------3---------------------
-----------------------------------------------------


this is the whole of the song and it is tabbed 
completely  by ear so please rate it

MUSE RULE!!!!


Comments