Muse - Hyper Music Chords & Tabs

 

Hyper Music Chords & Tabs

Muse Chords & Tabs

Version: 4 Type: Tab 0 ratings
1 star 2 stars 3 stars 4 stars 5 stars
comments

Hyper Music Tab

   
Muse
Hyper Music
sandruff@mailcity.com

Chords used:

Dm	x x x 10 10 10
Am	x x x  9 10  8
G	x x x  7  8  7
Gm	x x x  7  8  6

^ = hammer on/pull off   b = bend   / = slide up/down
~ = trill                # = pick scrape

Tunning - DADGBE

Intro:(heavy distortion)

e----------------------------------------------------------
b----------------------------------------------------------
g----------------------------------------------------------
d----------------------------------------------------------
a-------------------------------------------5-/-14---------
D--#######################################-----------------

e----13------------------13------------------13-------------
b----13---12-13-12-11----13---12-13-12-11----13-------------
g----11-0----------------11-0----------------11-------------
d----12---12-12-12-12----12---12-12-12-12----12-------------
a-----------------------------------------------------------
D-0--------------------0-------------------0------12-12--12-

(with crunch overdrive)

e-----------------------------------------
b----6----------------------6-------------
g----5----------------------5------------- x4
d----4----------------------4----3-3-3-3--
a----5-------------3--5-----5----2-3-2-1--
D-0-----0--3-3--5--------0-----0----------

Verse 1:

Dm	Am	G	Gm   x2
Mmm______
                  Dm    Am            G
Your golden skies          feed my role
Gm                      Dm   Am               G     Gm
 In this forgotten space race under my control
     Dm    Am     G                   Gm
Who's         returned from the dead?
   Dm    Am    G    
Who        remains?

  (JUST TO SPIT IT IN YOUR FACE)
e-----------------------------------
b-----------------------------------
g---#---#---#---#---#---#--#-#-#----
d---#---#---#---#---#---#--#-#-#----
a---#---#---#---#---#---#--#-#-#----
D---#---#---#---#---#---#--#-#-#----

Chorus 1: 

                                  You know that I don't 
e----13----------------          e---13----------------
b----13---12-13-12-11--          b---13----------------
g----11-0--------------  x3      g---11----------------
d----12---12-12-12-12--          d---12----------------
a----------------------          a--------5-/-14------
D-0--------------------          D-0-------------------
[ Tab from: http://www.guitartabs.cc/tabs/m/muse/hyper_music_tab_ver_4.html ]
 want you                and I never did
e-----------------------------------------
b----6----------------------6-------------
g----5----------------------5-------------
d----4----------------------4----3-3-3-3--
a----5-------------3--5-----5----2-3-2-1--
D-0-----0----3--5--------0-----0----------

                                I don't
e-----------------------------------------
b----6----------------------6-------------
g----5----------------------5-------------
d----4----------------------4----3-3-3-3--
a----5-------------3--5-----5----2-3-2-1--
D-0-----0----3--5--------0-----0----------

 want you               and I never will
e-------------------------------------------
b----6----------------------6---------------
g----5----------------------5--------------- 
d----4----------------------4----3-3-3-3----
a----5-------------3--5-----5----2-3-2-1----
D-0-----0----3--5--------0-----0----------0-

Verse 2:
Dm                   Am              G      Gm
      And you wanted more than I was worth
                   Dm           Am           G     Gm
And you think I was scared yeah,  you needed proof
    Dm  Am        G            Gm
Who        really cares anymore?
Dm  Am     G
Who    restrains?

  (JUST TO SPIT IT IN YOUR FACE)
e-----------------------------------
b-----------------------------------
g---#---#---#---#---#---#--#-#-#----
d---#---#---#---#---#---#--#-#-#----
a---#---#---#---#---#---#--#-#-#----
D---#---#---#---#---#---#--#-#-#----

Chorus 2: As chorus 1

Outro:

e-----------------------	     
b----13-----------------	  
g----11----------------- x3 then  
d----12--0-0-/-11-11-11-         
a----0------------------          
D-0--0------------------          

e----13----------------------------------------------- 
b----13-----12b---------------------------------------
g----11-----12b-12-12-10^12^10----10------------------
d----12-0-0--------------------12-----0---------------
a----0------------------------------------------3--5--
D-0--0----------------------------------0--3--5-------

e----------------------------------------------------- 
b----6-------12b--------------------------------------
g----5-------12b-12-12-10^12^10----10-----------------
d----4---0-0--------------------12-----0--------------
a----5-------------------------------------------3--5-
D-0-------------------------------------0--3--5-------

e----------------------------------------------------- 
b----6--x-x-14-14-14-14-14-14-14-14-------------------
g----5--x-x-13-13-13-13-13-13-13-13-----9b------------
d----4--x-x-------------------------------------------
a----5--x-x-------------------------------------------
D-0---------------------------------0-----------------
Comments