Muse - Hyper Music Chords & Tabs

 

Hyper Music Chords & Tabs

Muse Chords & Tabs

Version: 2 Type: Tab 0 ratings
1 star 2 stars 3 stars 4 stars 5 stars
comments

Hyper Music Tab

Title  : Hyper Music
Album  : Origin of Symmetry
Artist : MUSE
Tabber : Ghismo [Antonacci Vito]
e-mail : avnumber1@supereva.it

Intro:

|----8---7-7-8-7-6-|      |--8---------------|
|----7---7-7-8-7-6-|      |--7---------------|
|----7-------------|x3    |--7---7---7-7-7-7-|
|------------------|      |------------------|
|-0----------------|      |-0----------------|
|-0----------------|      |-0----------------|

|------------------------------------|
|------------------------------------|
|------------------------------------|
|----10--------5-7-----10------------|x4
|-0--8---3-5-3-3-5--0--8---4-4-6-4-3-|
|-0------3-5-3------0------2-2-3-2-1-|


|10-10-10-10-10-10-10-10-10-10-10-10-10-10-10-10|
|10-10-10-10-10-10-10-10-10-10-10-10-10-10-10-10|
|10-10-10-10-10-10-10-10-10-10-10-10-10-10-10-10|
|-----------------------------------------------|
|-----------------------------------------------|
|-----------------------------------------------|

riff1:

|10-10-10-10-10-10-10-10-8-8-8-8-8-8-8-8-7-7-7-7-7-7-7-7-6-6-6-6-6-6-6-6-|
|10-10-10-10-10-10-10-10-8-8-8-8-8-8-8-8-8-8-8-8-8-8-8-8-8-8-8-8-8-8-8-8-|
|10-10-10-10-10-10-10-10-9-9-9-9-9-9-9-9-7-7-7-7-7-7-7-7-7-7-7-7-7-7-7-7-|
|------------------------------------------------------------------------|
|------------------------------------------------------------------------|
|------------------------------------------------------------------------|

outro:

|----------------|
|----------------|
|----------------|
|----------------|
|-3-3-3-3-3-3-3-3|
|-3-3-3-3-3-3-3-3|

Chorus:

|----8---7-7-8-7-6-|      |--8---------------|
|----7---7-7-8-7-6-|      |--7---------------|
|----7-------------|x3    |--7---7---7-7-7-7-|
|------------------|      |------------------|
|-0----------------|      |-0----------------|
|-0----------------|      |-0----------------|

|------------------------------------|
|------------------------------------|
|------------------------------------|
|----10--------5-7-----10------------|x4
|-0--8---3-5-3-3-5--0--8---4-4-6-4-3-|
|-0------3-5-3------0------2-2-3-2-1-|

[ Tab from: http://www.guitartabs.cc/tabs/m/muse/hyper_music_tab_ver_2.html ]
|10-10-10-10-10-10-10-10-10-10-10-10-10-10-10-10|
|10-10-10-10-10-10-10-10-10-10-10-10-10-10-10-10|
|10-10-10-10-10-10-10-10-10-10-10-10-10-10-10-10|
|-----------------------------------------------|
|-----------------------------------------------|
|-----------------------------------------------|

solo:

|10----10----10-----8-----8----8----7----7----7-----6----6----6----|
|--10----10----10-----8-----8----9----8----8---8------8----8----8--|
|----10-----10----------9-----9---------7----7----------7----7-----|
|------------------------------------------------------------------|
|------------------------------------------------------------------|
|------------------------------------------------------------------|


|10----10----10-----8-----8----8----7----|
|--10----10----10-----8-----8----9--8----|
|----10-----10----------9-----9-----7----|
|----------------------------------------|
|----------------------------------------|
|----------------------------------------|



Chorus 2:

|----8---7-7-8-7-6-|      |--8---------------|
|----7---7-7-8-7-6-|      |--7---------------|
|----7-------------|x3    |--7---7---7-7-7-7-|
|------------------|      |------------------|
|-0----------------|      |-0----------------|
|-0----------------|      |-0----------------|

|------------------------------------|
|------------------------------------|
|------------------------------------|
|----10--------5-7-----10------------|x4
|-0--8---3-5-3-3-5--0--8---4-4-6-4-3-|
|-0------3-5-3------0------2-2-3-2-1-|



final chorus:

|----8---------------8---------------8---------------8----------------|
|----7---------------7---------------7---------------7---8^relase6-6--|
|----7-----6-6-6-----7-----6-6-6-----7-----6-6-6-----7------------7-7-|
|---------------------------------------------------------------------|
|-0---------------0---------------0---------------0-------------------|
|-0---------------0---------------0---------------0-------------------|

|--------------------8---------------|
|--------------------7-8^relase6-6-7-|
|--------------------7----------7-7--|
|----10--------5-7-------------------|
|-0--8---3-5-3-3-5-0-----------------|
|-0------3-5-3-----0-----------------|
Comments