Muse - Hyper Music Chords & Tabs

 

Hyper Music Chords & Tabs

Muse Chords & Tabs

Version: 3 Type: Bass Tab 0 ratings
1 star 2 stars 3 stars 4 stars 5 stars
comments

Hyper Music Bass Tab

   
Muse - Hyper Music Bass Tab

Tuning: D-A-D-G

\ - down up
h - hammer-on
p - pull-off


Intro (Bass starts at 0:16)

G|-----------|
D|-----------|  4x
A|-----------|
D|-12-\-0----|


Chorus (0:24)

G|---------------------------------|---------------------------------|
D|---------------------------------|---------------------------------|    4x
A|----5-------3-5------5---0-1-0---|----5-------3-5------5---1-0-1-0-|
D|-0----0-3-5-------0----0-------5-|-0----0-3-5-------0----0---------|


Vers (0:44)
[ Tab from: http://www.guitartabs.cc/tabs/m/muse/hyper_music_btab_ver_3.html ]
G|--------------------------------------------|
D|-0-0-0h2p0-3-3-0h5p0-7-7-0h9p0-10-10-0h12p0-|
A|--------------------------------------------|
D|--------------------------------------------|

G|--------------------------------------------|
D|-5-5-0h5p0-5-5-0h5p0-5-5-0h7p0-8--8--8--0---|   6x
A|--------------------------------------------|
D|---------------------------------------(0)--|


Pre-Chorus (1:28)

G|------------------|-------------------------|
D|------------------|-------------------------|
A|------------------|-------------------------|
D|-0-0-0-0-0-0-0-0--|-12\0--12\0--12\0--12\0--|


Continue in following order:

Chorus  4x (1:38)
Vers    4x (1:58) 
Pre-Chorus 1x (2:27)
Chorus  8x (2:37)


Happy playing! :)
Comments