Muse - Hyper Music Chords & Tabs

 

Hyper Music Chords & Tabs

Muse Chords & Tabs

Version: 1 Type: Bass Tab 0 ratings
1 star 2 stars 3 stars 4 stars 5 stars
comments

Hyper Music Bass Tab

Intro

G|--------------------|
D|--------------------|
A|--------------------|
D|--0----0----0----0--| (play once after guitar pickscraping)

then....
Chorus part

G|-----------------------------|
D|-----------------------------|
A|----5-----3-5----5-----------|
D|--0---3-5------0---9-10-9-8--| (repeat many times)

Verse
[ Tab from: http://www.guitartabs.cc/tabs/m/muse/hyper_music_btab.html ]
G|----------------------------------------------------------|
D|----------------------------------------------------------|
A|------------------------------3-3-5-----------------------|
D|--0-0-2-2-2-3-3-3-5-7-7-9-9-9--------5-5-0-5-0-5-5-0-5-0--| 

G|-----------------|
D|-----------------|(repeat many times)
A|------------3----|
D|--5-5-7-7-8---3--|
Comments