Muse - House Of The Rising Sun Chords & Tabs

 

House Of The Rising Sun Chords & Tabs

Muse Chords & Tabs

Version: 1 Type: Bass Tab 0 ratings
1 star 2 stars 3 stars 4 stars 5 stars
comments

House Of The Rising Sun Bass Tab

   
Standard Tuning

This is the absolute minimum, I'm a bit busy with work at the mo but
when I get more time I'll do all the fill ins and stuff.

Intro/Interlude/Chorus

G|--------------------------------------------------------------------|
D|--------------------------------------------------------------------|
A|-121212121212101010101010999999888888777777777777121212121212777777-|
E|--------------------------------------------------------------------|

Verse/Main Riff
[ Tab from: http://www.guitartabs.cc/tabs/m/muse/house_of_the_rising_sun_btab.html ]
G|---------------------------------------|
D|---------------------------------------|
A|-----------7-5---------------------7-5-|
E|-5---7-8---------0-1---3-5---7-8-------| 

G|---------------------------------------| 
D|---------------------------------------|
A|-------------7-5-----------------------|
E|-3-5---7-8---------0-1---3-5---5-0---3-| at this point it goes
                                           straight to the start of
                                           the intro thingy. Except on
                                           the last time where it
                                           goes 3-5.

Rest								   
Intro      x1						   
Verse      x1
Interlude  x1
Verse      x1
Interlude  x1
Rest
Verse      x1
Rest
Comments