Muse - Host Chords & Tabs

 

Host Chords & Tabs

Muse Chords & Tabs

Version: 1 Type: Bass Tab 0 ratings
1 star 2 stars 3 stars 4 stars 5 stars
comments

Host Bass Tab

Band - Muse
Song - Host

|-----------|-----------|-----------|-----------|-----------|-----------|
|-----------|-----------|-----------|-----------|-----------|-----------|
|-0---------|-2---------|-3---------|-2---------|-0---------|-----------| x2
|-----------|-----------|-----------|-----------|-----------|-0---------|
  

|-----------|-----------|-----------|-----------|\
|-----------|-----------|-0---------|-0-0-------| \
|-0-2-3-----|-----------|-----------|-----------|  \
|-----------|-0---------|-----------|-----------|   \
                                                     | x2
|-----------|-----------|-----------|-----------|   /
|-----------|-----------|-----------|-----------|  /
|-0---------|-0-0-------|-0---------|-0---------| /
|-----------|-----------|-----------|-----------|/

 
|-----------|-----------|-----------|-----------|
|-----------|-----------|-----------|-----------|
|-3-3-3-3-3-|-----------|-----------|-----------| x8
|-----------|-0-0-0-0-0-|-1-1-1-1-1-|-3-3-3-3-3-|

|------------|-----------|-----------|-----------|
|------------|-----------|-----------|-----------|
|------------|-----------|-----------|-----------|
|-5----------|-7---------|-8---------|-10--------|
[ Tab from: http://www.guitartabs.cc/tabs/m/muse/host_btab.html ]
|------------|-----------|-----------|
|------------|-----------|-----------|
|------------|-----------|-0---------|
|-12--12--\0-|-0---------|-----------|

|----------------|----------------|----------------|
|----------------|----------------|----------------|
|0-0-0-0-0-0-0-0-|2-2-2-2-2-2-2-2-|3-3-3-3-3-3-3-3-|
|----------------|----------------|----------------|

|----------------|----------------|----------------|
|----------------|----------------|----------------|
|2-2-2-2-2-2-2-2-|0-0-0-0-0-0-0-0-|----------------|
|----------------|----------------|0-0-0-0-0-0-0-0-|

|----------------|----------------|----------------|
|----------------|----------------|----------------|
|0-0-0-0-2-2-2-2-|3-3-3-3-5-5-5-5-|0-0-0-0-0-0-0-0-|
|----------------|----------------|----------------|

|----------------|----------------|----------------|
|----------------|----------------|----------------|
|2-2-2-2-2-2-2-2-|3-3-3-3-3-3-3-3-|5-5-5-5-5-5-5-5-|
|----------------|----------------|----------------|

|----------------|----------------|----------------|
|-2--------------|----------------|----------------|
|----------------|----------------|-0--------------|
|----------------|-0--------------|----------------|

|----------------|
|----------------|
|-0--------------|
|----------------|
Comments