Muse - Glastonbury Chords & Tabs

 

Glastonbury Chords & Tabs

Muse Chords & Tabs

Version: 1 Type: Tab 0 ratings
1 star 2 stars 3 stars 4 stars 5 stars
comments

Glastonbury Tab

   
This is the main part of the energetic outro following most
of Muse's 2004 concerts, including Glastonbury.


Heavy Distortion is needed.

E|-----------------||
B|-----------------||
G|-----------------||
D|-----------------||
A|-----------------||
D|-0-1-2-3-0-1-2-3-||  X 4

E|-----------------||
B|-----------------||
G|-----------------||
D|-----------------||
A|-0-1-2-3-0-1-2-3-||
D|-0-1-2-3-0-1-2-3-||  X 4

Break,rapidly scratch Drop D string with plec, 
or allow distortion to ring.
(here Matt pulls an amp out and stands on it)
[ Tab from: http://www.guitartabs.cc/tabs/m/muse/glastonbury_tab.html ]
E-------------------------------------------------------------||
B-------------------------------------------------------------||
G-------------------------------------------------------------||            
D-------------------------------------------------------------||            
A-------------------------------------------------------------||X2
D--0-3-0-5-0-3-0---0-3-0-6-6---0-3-0-5-0-3-0 3-3-3-3---------||       

small break, allow distortion to ring

E-------------------------------------------------------------||
B-------------------------------------------------------------||
G-------------------------------------------------------------||            
D--0-3-0-5-0-3-0---0-3-0-6-6---0-3-0-5-0-3-0-----------------||             
A--0-3-0-5-0-3-0---0-3-0-6-6---0-3-0-5-0-3-0------------------||
D--0-3-0-5-0-3-0---0-3-0-6-6---0-3-0-5-0-3-0 [3]-[3]-[3]-[3]-||       

Finish with slides up and down, then down tune the 6th string
until it creates that deep drone sound.
(trashing the guitar is optional)
Comments