Muse - Fillip Chords & Tabs

 

Fillip Chords & Tabs

Muse Chords & Tabs

Version: 1 Type: Tab 0 ratings
1 star 2 stars 3 stars 4 stars 5 stars
comments

Fillip Tab

Muse
Fillip

Tabbed by Benji
Ok i just reliased that i tabbed this the wrong way, it's upside down
:)
Anyways see if u can understand it.
U can email me at benjamin_no1@hotmail.com

E -15-15-15--3-3-3--15-15-15--3-3-3---
A -xx-xx-xx--x-x-x--xx-xx-xx--x-x-x---
D -17-17-17--5-5-5--17-17-17--5-5-5---
G ------------------------------------
B ------------------------------------
e ------------------------------------
         Listen to cd for rhythm

E -15-15-15-----
A -xx-xx-xx-----
D -17-17-17-----
G --------------
B --------------
e --------------

G -4-4-2-4-7~--4-4-2-4-9~

G--4-4-2-4-9-7-6-7-6-4-

E -15-14-12-11----------------
A -xx-xx-xx-xx-15-17-16-------
D -17-16-14-13-xx-xx-xx-------
G -------------17-19-18-------
B ----------------------------
e ----------------------------
[ Tab from: http://www.guitartabs.cc/tabs/m/muse/fillip_tab.html ]
E -15-15-15--3-3-3--15-15-15--3-3-3---
A -xx-xx-xx--x-x-x--xx-xx-xx--x-x-x---
D -17-17-17--5-5-5--17-17-17--5-5-5---
G ------------------------------------
B ------------------------------------
e ------------------------------------

G -4-4-2-4-7--4-4-2-4-9--4-4-2-4-9-7-6-7-6-4-


E -15-14-12-11------------------
A -xx-xx-xx-xx-15-17-16-15-14---
D -17-16-14-13-xx-xx-xx-xx-xx---
G -------------17-19-18-17-16---
B ------------------------------
e ------------------------------

Middle slow bit with no guitars (i think)

E -15-15-15-----
A -xx-xx-xx-----
D -17-17-17-----  Play this first muted then repeat,
G --------------
B --------------
e --------------


G -4-4-2-4-7--4-4-2-4-9--4-4-2-4-9-7-6-7-6-4- 
(played by bass then guitar)


E -15-14-12-11----------------
A -xx-xx-xx-xx-15-17-19-------
D -17-16-14-13-xx-xx-xx-------
G -------------17-19-21-------
B ----------------------------
e ----------------------------


E -15-14-12-11----------------
A -xx-xx-xx-xx-15-17-16-------
D -17-16-14-13-xx-xx-xx-------
G -------------17-19-18-------
B ----------------------------
e ----------------------------

Ok thats it,
email me if u want the start of Uno, Muscle Museam and Cave
Comments