Muse - Fillip Chords & Tabs

 

Fillip Chords & Tabs

Muse Chords & Tabs

Version: 3 Type: Bass Tab 0 ratings
1 star 2 stars 3 stars 4 stars 5 stars
comments

Fillip Bass Tab

Title: Fillip
Artist: Muse
Album: Showbiz
Tabbed: by danny on 26/07/2004
---------------------
Intro

G:----------------------------|
D:----------------------------|
A:----------------------------|
E:--3-3-3-----3-3-3---3-3-3---|

Verse (2x)

G:----------7-----------9-----------7----------------------|
D:--9-9-7-9-----9-9-7-9-----9-9-7-9---10-10-10-9-7-9-------|
A:---------------------------------------------------------|
E:---------------------------------------------------------|

Chorus

G:---------------------------------------------------------------------|
D:-------------------------------------------------44444444------------|
A:-------------------------------333333333355555555--------5-----------|
E:--33333332222222000000004444444---------------------------22222222---|

G:------------------------------|
D:------------------------------|
A:------------------------------|
E:--3-3-3-----3-3-3---3-3-3-----|

Verse

Chorus

G:------------------------------------------------------------------|
D:-------------------------------------------------44444444---------|
A:-------------------------------333333333355555555--------5--------|
E:--33333332222222000000004444444---------------------------22222222|

G:-----------------------------------------------------------------|
D:-----------------------------------------------------------------|
A:--55555555-------------------------------------------------------|
E:-----------22222222--3-------------------------------------------|

Bridge
[ Tab from: http://www.guitartabs.cc/tabs/m/muse/fillip_btab_ver_3.html ]
G:-----------------------------------------------------------------|
D:--55------5---5----44-----4---4--5--5-5-----5---5----44-----4---4|
A:-----5------5---------4-----4-----------5-----5---------4-----4--|
E:-------3--------2-------2------------------3--------2------------|

G:-----------------------------------------------------------------|
D:---3-3------2-2----3---3-3------2-2------------------------------|
A:-------3--------2----------3--------2----------------------------|
E:-1-------0-------------------0---------0-------------------------|

G:-----------------------------------------------------------------|
D:-----------------------------------------------------------------|
A:-----------------------555555-------777777---------5-------------|
E:--000000000----7-7-5-7-------7-7-5-7-------7-7-5-7--8-8-8-7-5-7--|

G:--------------------------------------------------------|
D:--------------------------------------------------------|
A:----------555555-------777777---------5-----------------|
E:--7-7-5-7-------7-7-5-7-------7-7-5-7--8-8-8-7-5-7------|

Chorus


G:-------------------------------------------------------------|
D:-------------------------------------------------------------|
A:-------------------------------333333333355555555777777777---|
E:--33333332222222000000004444444------------------------------|

G:---------------------------------------------------------------------|
D:-------------------------------------------------44444444------------|
A:-------------------------------333333333355555555--------5-----------|
E:--33333332222222000000004444444---------------------------22222222---|

G:-----------------------------|
D:--4-------4------------------|
A:----5-------5----------------|
E:------2-------2-------2~-----|

Changes or corrections email me at danny_brown1988@hotmail.com
Comments