Muse - Falling Down Chords & Tabs

 

Falling Down Chords & Tabs

Muse Chords & Tabs

Version: 1 Type: Tab 1 rating
1 star 2 stars 3 stars 4 stars 5 stars
comments

Falling Down Tab

SONG:FALLINGDOWN 
ARTIST:MUSE
ALBUM:SHOWBIZ [TRACK 4]
Tabbed by paul hutchinson paulhutch55@hotmail.com

E---0------------------------------------------------------------------
B---5---------6-------------6B---------------3---3--------------------------
G---6------7-----7-----5----5------5------2--2-----2--2-------------------------
D---7----------------------------------------4--------4------------------
A---0----------------------------------------0--------0------------------
E---------------------------------------------------------------------

[ Tab from: http://www.guitartabs.cc/tabs/m/muse/falling_down_tab.html ]
E-------------------------------------------------------------0--------
B----------------------------------------------------------------3-----
G---------------4--2-------2---------5-----[5]------1-----1---------1-----------
D---3------------------4--------------------------------2---2-------------
A----------0--------------------0---------------------------------------
E---------------------------------------------------0------------------

E---------------------------------------------------------------------
B----2---3--------3-----2---2-----------5----------------6------6-------------
G----4----2-------2-----2-----2---------6----6--6  --6---5---5------5---------------
D----0---------4----4---2-------2-4-----7----------7-----0---------------------
A------------------------------------o---------------------------------
E---------------------------------------------------------------------


Thats it so far [cant b rsed 2 tab anymore!] email if u think there is any probs!
Comments