Muse - Exo-politics Chords & Tabs

 

Exo-politics Chords & Tabs

Muse Chords & Tabs

Version: 9 Type: Tab 0 ratings
1 star 2 stars 3 stars 4 stars 5 stars
comments

Exo-politics Tab

   
What Ho, Old bean!

There's a live version of this available on the net somewhere, and it's called something else
on that, like Burning Bandits.  I'm pretty sure that on the albumit's t be called Exo-Politics.


As much as I believe in spreading the word of Muse, and how to play their songs, 
please don’t just steal this, and pass it off as your own on other tab sites.  
Credit Mr Steven Garner, as this is my tab, as much as the song is Muse’s.


Anywho.....this is:

EXO-POLITICS

Here you go.  Basic idea....

INTRO
e--XXXX--------------------------
B--XXXX--------------------------
G--XXXX--------------------------
D--XXXX--------------------------
A--XXXX---5-5-5-3-5-7-8-8-7^-3--- X2
E--XXXX--------------------------


Riff/verse
e-------------------------
B-------------------------
G-------------------------
D-------------------------
A--5-5-5-3-5-7-8-8-7^-3--- X2
E-------------------------

e------------------------------------------------
B------------------------------------------------
G------------------------------------------------
D------------------------------------------------
A--1-1-1-0-1-3-----------------------3-5-5-3-5-3- X1
E--------------1-1-1-0-1-3-5-5-5-3-5-------------

e------------------------------------------------------
B------------------------------------------------------
G------------------------------------------------------
D------------------------------------------------------
A--1-1-1-0-1-3-------------------------------------3-5- X1
E--------------1-1-1-0-1-3-5-5-5-3-5-6-5-5-6-5-3-5------


Pre Chorus
   Dm    C    F    Bb
e------------------------------------------------
B------------------------------------------------
G--7-----5----10---------------------------------
D--7-----5----10---8-------------3---------------  X1
A--5-----3----8----8---5-5-5-3-5---5-5-3-1-0-1-3-
E------------------6-----------------------------
[ Tab from: http://www.guitartabs.cc/tabs/m/muse/exo_politics_tab_ver_9.html ]
   Dm    C    F    Bb
e--------------------------------------------------
B------------------11------------------------------
G--7-----5----10---10------------------------------
D--7-----5----10---8---------------3---------------  X1 
A--5-----3----8----------5-5-5-3-5---5-5-3-5-3-1-0- 
E--------------------------------------------------

Chorus
     Bb  F   A   Dm      Bb  F   A
e----1---1---5---5-------1---1---5-------
B----1---1---5---6-------1---1---5-------
G----3---2---6---7-------3---2---6-------  X1
D----3---3---7---7-------3---3---7-------
A----1---3---7---5-------1---3---7-------
E--------1---5---------------1---5-------


Solo
e------------------------------------------------------------------------
B--10-10-8---------------------------10-10-8-----------------------------
G----------10-9-10------10-9------------------10-9-10------10-9----------
D------------------10-7------10-7-7^------------------10-7------10-7-7-8-
A------------------------------------------------------------------------
E------------------------------------------------------------------------

e---------------------------------------------------------------------------------
B--11-11-10-11-13-13-11-10-10h11p10-8---------10-8-10-10h11p10-8------------------
G-------------------------------------10-9-----------------------10-9-10-10^-9-10-
D------------------------------------------11-------------------------------------
A---------------------------------------------------------------------------------
E---------------------------------------------------------------------------------

e-------------------------------------------------------------------
B-11-11-10-11-13-13-11-10-10h11p10-8---------10-10-10-10--8---6--5--
G------------------------------------10-9-------------12^-10^-8^-7^-
D-----------------------------------------11------------------------
A-------------------------------------------------------------------
E-------------------------------------------------------------------



Then:

Verse
CHK-CHK-CHK-CHK-CHK-CHK-CHK-CHK-CHK!! over the drumlolz
Pre Chorus
Chorus
Chorus (with added vocal 5ths!)
Intro Riff over a Dm ringing out.


HUZZAH!  
ENJOY!
REJOICE!

Any questions:  Go HERE:  gerner33@hotmail.com
Comments