Muse - Escape Chords & Tabs

 

Escape Chords & Tabs

Muse Chords & Tabs

Version: 2 Type: Bass Tab 0 ratings
1 star 2 stars 3 stars 4 stars 5 stars
comments

Escape Bass Tab

Muse - Escape

Pre-Chorus 1

G-|--------------------|--------------------|
D-|--------------------|--------------------|
A-|-----------1--------|--2--------0--------|
E-|--2-----------------|--------------------|

G-|--------------------|--------------------|
D-|--------------------|--------------------|
A-|--------------------|--------------------|
E-|--4--------3--------|--2-----------------|

G-|--------------------|--------------------|
D-|--------------------|--------------------|
A-|-----------1--------|--2--------0--------|
E-|--2-----------------|--------------------|

G-|--------------------|--------------------|
D-|--------------------|-----------4~-------|
A-|--------------------|--------------------|
E-|--4--------3--------|--2-----------------|

Chorus 1 (slow)
G-|------------------|-------------------|
D-|------------------|-------------------|
A-|--2-2-------------|----------------0--|
E-|------------------|--3-3-3-3-3-3-3----|

G-|------------------|-------------------|
D-|------------------|-------------------|
A-|--2-2-------------|----------5-5-5-5--|
E-|------------------|--3-3-3-3----------|

G-|------------------|-------------------|
D-|------------------|-------------------|
A-|--2-2-------------|----------5-5-5-4--|
E-|------------------|--3-3-3-3----------|

G-|------------------|-------------------|
D-|------------------|-------------------|
A-|--2-2-------------|--5-5-5-5----------|
E-|------------------|----------3-3-3-3--|
[ Tab from: http://www.guitartabs.cc/tabs/m/muse/escape_btab_ver_2.html ]
Verse 2 x2
G-|-------------------|------------------|
D-|-------------------|------------------|
A-|--5-5-5-5-5-5-5-5--|------------------|
E-|-------------------|-3-3-3-3-3-3-3-3--|

G-|-------------------|------------------|
D-|-------------------|------------------|
A-|-------------------|------------------|
E-|--2-2-2-2-2-2-2-2--|-3-3-3-3-3-3-3-3--|

Pre-Chorus 2 x2
G-|------------------|------------------|
D-|------------------|------------------|
A-|----------1-1-1-1-|-2-2-2-2-0-0-0-0--|
E-|--2-2-2-2---------|------------------|

G-|------------------|------------------|
D-|------------------|------------------|
A-|------------------|------------------|
E-|--4-4-4-4-3-3-3-3-|-2----------------|

Chorus 2 (without singing)
G-|------------------|-------------------|
D-|------------------|-------------------|
A-|--2-2-------------|----------------0--|
E-|-------\3---------|--3-3-3-3-3-3-3----|

G-|------------------|-------------------|
D-|------------------|-------------------|
A-|--2-2--5\3--------|----------5-5-5-5--|
E-|-------5\3--------|--3-3-3-3----------|

G-|------------------|-------------------|
D-|------------------|-------------------|
A-|--2-2-------------|----------5-5-5-4--|
E-|------------------|--3-3-3-3----------|

G-|------------------|-------------------|
D-|------------------|-------------------|
A-|--2-2-------------|--5-5-5-5-5-5-5-5--|
E-|------------------|-------------------|

End
G-|------------------|-------------------|
D-|------------------|-------------------|
A-|--5---------------|-------------------|
E-|------------------|-------------------|
Comments