Muse - Endlessly Chords & Tabs

 

Endlessly Chords & Tabs

Muse Chords & Tabs

Version: 1 Type: Bass Tab 0 ratings
1 star 2 stars 3 stars 4 stars 5 stars
comments

Endlessly Bass Tab

Song - Endlessly
Artist - Muse
Tabber - Zeidrich

Huge intro of a verse and chorus, bass enters when the lyrics start at the
2nd verse (kind of offbeat rythym):

G|-------------------------------9-9--9--9--9---------------|
D|-9-7--7--7--7-10-7--7-10-7-9-7----------------------------|
A|--------------------------------------------7-7--7--7--7--| x2
E|----------------------------------------------------------|

Chorus:

G|-----------------------------------------------------|
D|-----------------------------------------------------|
A|-8-5--5--5--5-8-5--5--5--5-3-0--0--0--0-3-0--0--0--0-|
E|-----------------------------------------------------|
[ Tab from: http://www.guitartabs.cc/tabs/m/muse/endlessly_btab.html ]
G|-----------------------------------------------------|
D|-----------------------------------------------------|
A|-8-5--5--5--5-8-5--5--5--5-8-8--8--8--8-8-8--8--8--8-|
E|-----------------------------------------------------|

G|-----------------------------------------------------|
D|-----------------------------------------------------|
A|-3-3--3--3--3-3-3--3--3--3-7-7--7--7--7-7-7--7--7--7-|
E|-----------------------------------------------------|

G|-----------------------------------------------------|
D|-----------------------------------------------------|
A|-1-1--1--1--1-0-0--0--0--0-5-5--5--5--5-5-5--5--5--5-|
E|-----------------------------------------------------|

G|-----------------------------------------------------|
D|-----------------------------------------------------|
A|---------------------------3-3--3--3--3-3-3--3--3--3-|
E|-3-3--3--3--3-3-3--3--3--3---------------------------|

Then theres a kinda synth solo, then do chorus again
Comments