Muse - Debase Masons Grog Chords & Tabs

 

Debase Masons Grog Chords & Tabs

Muse Chords & Tabs

Version: 1 Type: Tab 0 ratings
1 star 2 stars 3 stars 4 stars 5 stars
comments

Debase Masons Grog Tab

DROP D TUNING.

credits to NOBLAMENOSHAME for the verse/chorus
and i (smiddy) did the intro.

if you are wondering what this song you've never heard of is, 
its a new one of theres, predicted to be the new
Stockholm syndrome.
Also if you're wondering why the name is so weird
it's because it's an anagram of 'messageboard song'

you can get the song here (its only a bootleg, it was played
live in the US only a couple of days ago. we tabbers are quick)
http://muse-dmg.cjb.net

this song name was pulled directly from one of their setlists  -
they were play a joke on the muse.mu messageboarders :P

anyway, onto the song.

Intro

e|---------------------------x-x-x-|------------------------------x-x-x-|
B|---------------------------x-x-x-|------------------------------x-x-x-|
G|---------------------------x-x-x-|------------------------------x-x-x-|
D|---------------------------x-x-x-|------------------------------x-x-x-|
A|---------------------------x-x-x-|------------------------------x-x-x-|
D|-8-5-5-5-5-5-8-5-5-5-5-5-8-x-x-x-|-10-7-7-7-7-7-10-7-7-7-7-7-10-x-x-x-|
 {>>>>>>>>>>>>>>>>>>>>>>TWICE<<<<<} {>>>>>>>>>>>>>>>>>>>>>>>TWICE>>>>>>}
 {>>>>>>>>>>>>>>>>>>>>>>>>>>>>>>THREE TIMEs<<<<<<<<<<<<<<<<<<<<<<<<<<<<}  


if you cant read that, you have to play the first bar twice,
then the second bar twice, then do that over 3 times. on the fourth time,
do the first bar twice and then hit harmonics around the 12th for some
feedback action. then move onto the below


||--------------------------------------------------|
||o-------------------------------------------------|
||--------------------------------------------------|
||--------------------------------------------------|
||o--8--8--8--8--8--8--8--8--8--8--8--8--8--8--8--8-|
||---3--3--3--3--3--3--3--3--3--3--3--3--3--3--3--3-|
|
|   Gtr II
|    S  S  S  S  S  S  S  S  S  S  S  S  S  S  S  S
||--------------------------------------------------|
||o-------------------------------------------------|
||--14-14-14-14-14-14-12-12-12-12-10-10-10-10-10-10-|
||--------------------------------------------------|
||o-12-12-12-12-12-12-10-10-10-10--8--8--8--8--8--8-|
||--------------------------------------------------|


  S S S S S S S S S S S S S S S S
|----------------------------------|
|----------------------------------|
|----------------------------------|
|----------------------------------|
|-8-8-8-8-8-8-8-8-8-8-8-8-8-8-8-8--|
|-3-3-3-3-3-3-3-3-3-3-3-3-3-3-3-3--|
|
| S S S S S S S S S S S S S S S S
|----------------------------------|
|----------------------------------|
|-5-5-5-5-5-5-5-5-5-5-5-5-5-5-5-5--|
|----------------------------------|
|-3-3-3-3-3-3-3-3-3-3-3-3-3-3-3-3--|
|----------------------------------|


   S  S  S  S  S  S  S  S  S  S  S  S  S  S  S  S
|-------------------------------------------------|
|-------------------------------------------------|
|-------------------------------------------------|
|-------------------------------------------------|
|--8--8--8--8--8--8--8--8--8--8--8--8--8--8--8--8-|
|--3--3--3--3--3--3--3--3--3--3--3--3--3--3--3--3-|
|
|  S  S  S  S  S  S  S  S  S  S  S  S  S  S  S  S
|-------------------------------------------------|
|-------------------------------------------------|
|-14-14-14-14-14-14-12-12-12-12-10-10-10-10-10-10-|
|-------------------------------------------------|
|-12-12-12-12-12-12-10-10-10-10--8--8--8--8--8--8-|
|-------------------------------------------------|

[ Tab from: http://www.guitartabs.cc/tabs/m/muse/debase_masons_grog_tab.html ]
   S  S  S  S  S  S  S  S  S  S  S  S  S  S  S  S
|-------------------------------------------------|
|-------------------------------------------------|
|-------------------------------------------------|
|-------------------------------------------------|
|-10-10-10-10-10-10-10-10-10-10-10-10-10-10-10-10-|
|-10-10-10-10-10-10-10-10-10-10-10-10-10-10-10-10-|
|
|  S  S  S  S  S  S  S  S  S  S  S  S  S  S  S  S
|-------------------------------------------------|
|-------------------------------------------------|
|--9--9--9--9--9--9--9--9--9--9--9--9--9--9--9--9-|
|-------------------------------------------------|
|--7--7--7--7--7--7--7--7--7--7--7--7--7--7--7--7-|
|-------------------------------------------------|


   S  S  S  S  S  S  S  S  S  S  S  S  S  S  S  S
|-------------------------------------------------|
|-------------------------------------------------|
|-------------------------------------------------|
|-------------------------------------------------|
|-10-10-10-10-10-10-10-10-10-10-10-10-10-10-10-10-|
|--5--5--5--5--5--5--5--5--5--5--5--5--5--5--5--5-|
|
|  S  S  S  S  S  S  S  S  S  S  S  S  S  S  S  S
|-------------------------------------------------|
|-------------------------------------------------|
|-15-15-15-15-15-15-14-14-14-14-12-12-12-12-12-12-|
|-------------------------------------------------|
|-13-13-13-13-13-13-12-12-12-12-10-10-10-10-10-10-|
|-------------------------------------------------|


   S  S  S  S  S  S  S  S  S  S  S  S  S  S  S  S
|-------------------------------------------------|
|-------------------------------------------------|
|-------------------------------------------------|
|-------------------------------------------------|
|-10-10-10-10-10-10-10-10-10-10-10-10-10-10-10-10-|
|--5--5--5--5--5--5--5--5--5--5--5--5--5--5--5--5-|
|
|  S  S  S  S  S  S  S  S  S  S  S  S  S  S  S  S
|-------------------------------------------------|
|-------------------------------------------------|
|--7--7--7--7--7--7--7--7--7--7--7--7--7--7--7--7-|
|-------------------------------------------------|
|--5--5--5--5--5--5--5--5--5--5--5--5--5--5--5--5-|
|-------------------------------------------------|


   S  S  S  S  S  S  S  S  S  S  S  S  S  S  S  S
|-------------------------------------------------|
|-------------------------------------------------|
|-------------------------------------------------|
|-------------------------------------------------|
|-10-10-10-10-10-10-10-10-10-10-10-10-10-10-10-10-|
|--5--5--5--5--5--5--5--5--5--5--5--5--5--5--5--5-|
|
|  S  S  S  S  S  S  S  S  S  S  S  S  S  S  S  S
|-------------------------------------------------|
|-------------------------------------------------|
|-15-15-15-15-15-15-14-14-14-14-12-12-12-12-12-12-|
|-------------------------------------------------|
|-13-13-13-13-13-13-12-12-12-12-10-10-10-10-10-10-|
|-------------------------------------------------|


   S  S  S  S  S  S  S  S  S  S  S  S  S  S  S  S
|--------------------------------------------------||
|-------------------------------------------------o||
|--------------------------------------------------||
|--7--7--7--7--7--7--7--7--7--7--7--7--7--7--7--7--||
|--5--5--5--5--5--5--5--5--5--5--5--5--5--5--5--5-o||
|--0--0--0--0--0--0--0--0--0--0--0--0--0--0--0--0--||
|
|  S  S  S  S  S  S  S  S  S  S  S  S  S  S  S  S
|--------------------------------------------------||
|-------------------------------------------------o||
|-10-10-10-10-10-10-10-10-10-10-10-10-10-10-10-10--||
|--------------------------------------------------||
|--8--8--8--8--8--8--8--8--8--8--8--8--8--8--8--8-o||
|--------------------------------------------------||
Comments