Muse - Dead Star Chords & Tabs

 

Dead Star Chords & Tabs

Muse Chords & Tabs

Version: 4 Type: Tab 0 ratings
1 star 2 stars 3 stars 4 stars 5 stars
comments

Dead Star Tab

Tab:Muse - Deadstar
E-mail : matizappa73@hotmail.com
Dropped D tuning
Taken From the Soundtrack Hullabaloo

Intro/Main raif
e|--------------------------------------------------------------------------
B|--------------------------------------------------------------------------
G|--------------------------------------------------------------------------
D|--------------------------------------------------------------------------
A|----------------------------3-4-5-----------------------------------------
D|--12-0-12-0-0-12-0-0--3-4-5-----------------------------------------------

Verse
e|-------------------------------------------------------------------------
B|--------------------------------------------------------------------------
G|--------------------------------------------------------------------------
D|--0000000000--00---00--00-------------------------------------------------
A|--0000000000--00---00--00-------------------------------------------------
D|--0000000000--00---00--00-------------------------------------------------
The chords are in random places
[ Tab from: http://www.guitartabs.cc/tabs/m/muse/dead_star_tab_ver_4.html ]
Riff 
e|--------------------------------------------------------------------------
B|--------------------------------------------------------------------------
G|------------------------------3-4-5---------------------------------------
D|--12-0--12-0-0-12-0-0--3-4-5--3-4-5---------------------------------------
A|--12-0--12-0-0-12-0-0--3-4-5--3-4-5---------------------------------------
D|--12-0--12-0-0-12-0-0--3-4-5----------------------------------------------

solo ( this a rough idea )
e|-5p05p05po5po5po5po6po6po6po6p06p07po7po7po7po7po7p02po2po2po3po3po3po----
B|--------------------------------------------------------------------------
G|--------------------------------------------------------------------------
D|--------------------------------------------------------------------------
A|--------------------------------------------------------------------------
E|--------------------------------------------------------------------------
This is played really fast you pick 5 once and then dont pick again by pulling
off you create more sound etc

E-mail with comments,suggestions,queries

Muse RULE\../
Comments