Muse - Dead Star Chords & Tabs

 

Dead Star Chords & Tabs

Muse Chords & Tabs

Version: 1 Type: Tab 0 ratings
1 star 2 stars 3 stars 4 stars 5 stars
comments

Dead Star Tab

   
Muse: Dead Star

From Dave Curtis 

15/06/02
Cheers to Richard McCulloch for the correction on the riff
The chorus has been entirely changed because it was wrong
I have now got all the lyrics because there were some missing 
Enjoy!

NOTE: This song is in Drop D

Key:
PM   : Palm Mute
  : Harmonic found midway between frets 2 and 3
  : Harmonic on fret 2
  : Harmonic found just above fret 3
  : Harmonic on fret 5                           


Intro:

e---------------------------------------------------------------------------
B---------------------------------------------------------------------------
G---------------------------------------------------------------------------
D---------------------------------------------------------------------------
A---------------------------------------------------
D--12-0-0-12-0-0-12-0-0-----------------12-0-0-12-0-0-12-0-0----------------
PM .....................     PM .....................

e------------------------------------------------------------------
B------------------------------------------------------------------
G------------------------------------------------------------------
D------------------------------------------------------------------
A-12-0-0-12-0-0-12-0-3-4-5-0-7-10--12-0-0-12-0-0-12-0-3-4-5-0-7-10-
D-12-0-0-12-0-0-12-0-3-4-5-0-7-10--12-0-0-12-0-0-12-0-3-4-5-0-7-10-

e----------------------------------------
B----------------------------------------
G----------------------------------------
D----------------------------------------
A-12-0-0-12-0-0-12-0-3-5-----
D-12-0-0-12-0-0-12-0-3-5-----------------

e----------------------------------------
B----------------------------------------
G----------------------------------------
D----------------------------------------
A-12-0-0-12-0-0-12-0-3-5-----
D-12-0-0-12-0-0-12-0-3-5-----------------

Verse:
e-------------------------------------------------
B--5-5-5-5-5-5-5-5-5-5-------5-5-5-5-5-5-5-5-5-5--
G--7-7-7-7-7-7-7-7-7-7-------7-7-7-7-7-7-7-7-7-7--
D--7-7-7-7-7-7-7-7-7-7-------7-7-7-7-7-7-7-7-7-7--
A--5-5-5-5-5-5-5-5-5-5-------5-5-5-5-5-5-5-5-5-5--
D-------------------------------------------------
              
 
 
    ,
e-------------------------------------------------------------------
B------------4-4-4-4-----------4-4----4-4---3-3-3-3-----------------
G------------6-6-6-6-----------6-6----6-6---5-5-5-5---3-2-3-4-4-5-6-
D------------6-6-6-6-----------6-6----6-6---5-5-5-5---3-2-3-4-4-5-6-
A------------4-4-4-4-----------4-4----4-4---3-3-3-3---1-0-1-2-2-3-4-
D-------------------------------------------------------------------


e------------------------------------------------------------------------
B--2-2-2-2-2-2-2-2-2-2-2-2-2-2-2-2-------3-3-3-3-3-3-3-3-3-3-3-3-3-3-3-3-
G--4-4-4-4-4-4-4-4-4-4-4-4-4-4-4-4-------5-5-5-5-5-5-5-5-5-5-5-5-5-5-5-5-
D--4-4-4-4-4-4-4-4-4-4-4-4-4-4-4-4-------5-5-5-5-5-5-5-5-5-5-5-5-5-5-5-5-
A--2-2-2-2-2-2-2-2-2-2-2-2-2-2-2-2-------3-3-3-3-3-3-3-3-3-3-3-3-3-3-3-3-
D------------------------------------------------------------------------
                  

e-----------------------------
B-----------------------------
G-----------------------------
D-----------------------------
A--------
D-----------------------------

Chorus:
e--------------------------------------------------------
B--6-6-6-6-----6-6-6-----6-6-6--1-1-1-1----1-1-1---1-1-1-
G--7-7-7-7-----7-7-7-----7-7-7--2-2-2-2----2-2-2---2-2-2-
D--8-8-8-8-----8-8-8-----8-8-8--3-3-3-3----3-3-3---3-3-3-
A--8-8-8-8-----8-8-8-----8-8-8--3-3-3-3----3-3-3---3-3-3-
D--------------------------------------------------------
                You used to be  everything   to       me,

e------------------------------------------------------------
B-5-5-5-5----5-5-5---5-5-5-------6-6-6-6-----6-6-6-----6-6-6-
G-6-6-6-6----6-6-6---6-6-6-------7-7-7-7-----7-7-7-----7-7-7-
D-7-7-7-7----7-7-7---7-7-7-------8-8-8-8-----8-8-8-----8-8-8-
A-7-7-7-7----7-7-7---7-7-7-------8-8-8-8-----8-8-8-----8-8-8-
D------------------------------------------------------------
       

e-------------------------------------------------------------
B-6-6-6-6-----6-6-6---6-6-6-------1-1-1-1-----1-1-1-----1-1-1-
G-7-7-7-7-----7-7-7---7-7-7-------2-2-2-2-----2-2-2-----2-2-2-
D-8-8-8-8-----8-8-8---8-8-8-------3-3-3-3-----3-3-3-----2-2-2-
A-8-8-8-8-----8-8-8---8-8-8-------3-3-3-3-----3-3-3-----3-3-3-
D-------------------------------------------------------------
             
[ Tab from: http://www.guitartabs.cc/tabs/m/muse/dead_star_tab.html ]
e----------------------------------
B----------------------------------
G----------------------------------
D----------------------------------
A-12-0-0-12-0-0-12-0-3-5-6-6-10-11-
D-12-0-0-12-0-0-12-0-3-5-6-6-10-11-    


e----------------------------------
B----------------------------------
G----------------------------------
D----------------------------------
A-12-0-0-12-0-0-12-0-3-5-6-6-10-11-
D-12-0-0-12-0-0-12-0-3-5-6-6-10-11-

e----------------------------------------
B----------------------------------------
G----------------------------------------
D----------------------------------------
A-12-0-0-12-0-0-12-0------
D-12-0-0-12-0-0-12-0---------------------
  ,

e----------------------------------------
B----------------------------------------
G----------------------------------------
D----------------------------------------
A-12-0-0-12-0-0-12-0------
D-12-0-0-12-0-0-12-0---------------------
  

Verse:
e-------------------------------------------------
B--5-5-5-5-5-5-5-5-5-5-------5-5-5-5-5-5-5-5-5-5--
G--7-7-7-7-7-7-7-7-7-7-------7-7-7-7-7-7-7-7-7-7--
D--7-7-7-7-7-7-7-7-7-7-------7-7-7-7-7-7-7-7-7-7--
A--5-5-5-5-5-5-5-5-5-5-------5-5-5-5-5-5-5-5-5-5--
D-------------------------------------------------
                  

e-------------------------------------------------------------------
B------------4-4-4-4-----------4-4----4-4---3-3-3-3-----------------
G------------6-6-6-6-----------6-6----6-6---5-5-5-5---3-2-3-4-4-5-6-
D------------6-6-6-6-----------6-6----6-6---5-5-5-5---3-2-3-4-4-5-6-
A------------4-4-4-4-----------4-4----4-4---3-3-3-3---1-0-1-2-2-3-4-
D-------------------------------------------------------------------


e------------------------------------------------------------------------
B--2-2-2-2-2-2-2-2-2-2-2-2-2-2-2-2-------3-3-3-3-3-3-3-3-3-3-3-3-3-3-3-3-
G--4-4-4-4-4-4-4-4-4-4-4-4-4-4-4-4-------5-5-5-5-5-5-5-5-5-5-5-5-5-5-5-5-
D--4-4-4-4-4-4-4-4-4-4-4-4-4-4-4-4-------5-5-5-5-5-5-5-5-5-5-5-5-5-5-5-5-
A--2-2-2-2-2-2-2-2-2-2-2-2-2-2-2-2-------3-3-3-3-3-3-3-3-3-3-3-3-3-3-3-3-
D------------------------------------------------------------------------
                

e-----------------------------
B-----------------------------
G-----------------------------
D-----------------------------
A--------
D-----------------------------



Repeat Chorus:


Solo : This is played with a whammy pedal and I dont have one 
       so if someone tabs it properly email me.
       I will give credit where it is due.

Outro
e------------------------------------------------------------------
B------------------------------------------------------------------
G------------------------------------------------------------------
D------------------------------------------------------------------
A------------------------------------------------------------------
D-12-0-0-12-0-0-12-0-3-4-5-0-7-10--12-0-0-12-0-0-12-0-3-4-5-0-7-10-

e---------------------------------
B---------------------------------
G---------------------------------
D---------------------------------
A-12-0-0-12-0-0-12-0-3-4-5-0-7-10-
D-12-0-0-12-0-0-12-0-3-4-5-0-7-10-

e---------------------------------
B---------------------------------
G---------------------------------
D---------------------------------
A-12-0-0-12-0-0-12-0-3-4-5-0-7-10-
D-12-0-0-12-0-0-12-0-3-4-5-0-7-10-

e----------------------------------------
B----------------------------------------
G----------------------------------------
D----------------------------------------
A-12-0-0-12-0-0-12-0------
D-12-0-0-12-0-0-12-0---------------------

e----------------------------------------
B----------------------------------------
G----------------------------------------
D----------------------------------------
A-12-0-0-12-0-0-12-0------
D-12-0-0-12-0-0-12-0---------------------
  By yourse_____________________lf,
e----------------------------------------
B----------------------------------------
G----------------------------------------
D----------------------------------------
A-12-0-0-12-0-0-12-0------
D-12-0-0-12-0-0-12-0---------------------
  By yourse_____________________lf,
e----------------------------------------
B----------------------------------------
G----------------------------------------
D----------------------------------------
A-12-0-0-12-0-0-12-0------
D-12-0-0-12-0-0-12-0---------------------
  By,
Comments